  0
SECTION
  2
HEADER
  9
$ACADVER
  1
AC1015
  9
$ACADMAINTVER
 70
    18
  9
$DWGCODEPAGE
  3
ANSI_1252
  9
$INSBASE
 10
0.0
 20
0.0
 30
0.0
  9
$EXTMIN
 10
-47.99999999999999
 20
-47.99999999999999
 30
-12.0
  9
$EXTMAX
 10
47.99999999999999
 20
47.99999999999999
 30
27.0
  9
$LIMMIN
 10
0.0
 20
0.0
  9
$LIMMAX
 10
12.0
 20
9.0
  9
$ORTHOMODE
 70
     0
  9
$REGENMODE
 70
     1
  9
$FILLMODE
 70
     1
  9
$QTEXTMODE
 70
     0
  9
$MIRRTEXT
 70
     0
  9
$LTSCALE
 40
1.0
  9
$ATTMODE
 70
     1
  9
$TEXTSIZE
 40
0.2
  9
$TRACEWID
 40
0.05
  9
$TEXTSTYLE
  7
Standard
  9
$CLAYER
  8
0
  9
$CELTYPE
  6
ByLayer
  9
$CECOLOR
 62
   256
  9
$CELTSCALE
 40
1.0
  9
$DISPSILH
 70
     0
  9
$DIMSCALE
 40
1.0
  9
$DIMASZ
 40
0.18
  9
$DIMEXO
 40
0.0625
  9
$DIMDLI
 40
0.38
  9
$DIMRND
 40
0.0
  9
$DIMDLE
 40
0.0
  9
$DIMEXE
 40
0.18
  9
$DIMTP
 40
0.0
  9
$DIMTM
 40
0.0
  9
$DIMTXT
 40
0.18
  9
$DIMCEN
 40
0.09
  9
$DIMTSZ
 40
0.0
  9
$DIMTOL
 70
     0
  9
$DIMLIM
 70
     0
  9
$DIMTIH
 70
     1
  9
$DIMTOH
 70
     1
  9
$DIMSE1
 70
     0
  9
$DIMSE2
 70
     0
  9
$DIMTAD
 70
     0
  9
$DIMZIN
 70
     0
  9
$DIMBLK
  1

  9
$DIMASO
 70
     1
  9
$DIMSHO
 70
     1
  9
$DIMPOST
  1

  9
$DIMAPOST
  1

  9
$DIMALT
 70
     0
  9
$DIMALTD
 70
     2
  9
$DIMALTF
 40
25.4
  9
$DIMLFAC
 40
1.0
  9
$DIMTOFL
 70
     0
  9
$DIMTVP
 40
0.0
  9
$DIMTIX
 70
     0
  9
$DIMSOXD
 70
     0
  9
$DIMSAH
 70
     0
  9
$DIMBLK1
  1

  9
$DIMBLK2
  1

  9
$DIMSTYLE
  2
Standard
  9
$DIMCLRD
 70
     0
  9
$DIMCLRE
 70
     0
  9
$DIMCLRT
 70
     0
  9
$DIMTFAC
 40
1.0
  9
$DIMGAP
 40
0.09
  9
$DIMJUST
 70
     0
  9
$DIMSD1
 70
     0
  9
$DIMSD2
 70
     0
  9
$DIMTOLJ
 70
     1
  9
$DIMTZIN
 70
     0
  9
$DIMALTZ
 70
     0
  9
$DIMALTTZ
 70
     0
  9
$DIMUPT
 70
     0
  9
$DIMDEC
 70
     4
  9
$DIMTDEC
 70
     4
  9
$DIMALTU
 70
     4
  9
$DIMALTTD
 70
     2
  9
$DIMTXSTY
  7
Standard
  9
$DIMAUNIT
 70
     0
  9
$DIMADEC
 70
     0
  9
$DIMALTRND
 40
0.0
  9
$DIMAZIN
 70
     0
  9
$DIMDSEP
 70
    46
  9
$DIMATFIT
 70
     3
  9
$DIMFRAC
 70
     0
  9
$DIMLDRBLK
  1

  9
$DIMLUNIT
 70
     4
  9
$DIMLWD
 70
    -2
  9
$DIMLWE
 70
    -2
  9
$DIMTMOVE
 70
     0
  9
$LUNITS
 70
     4
  9
$LUPREC
 70
     4
  9
$SKETCHINC
 40
0.1
  9
$FILLETRAD
 40
0.0
  9
$AUNITS
 70
     0
  9
$AUPREC
 70
     0
  9
$MENU
  1
.
  9
$ELEVATION
 40
0.0
  9
$PELEVATION
 40
0.0
  9
$THICKNESS
 40
0.0
  9
$LIMCHECK
 70
     0
  9
$CHAMFERA
 40
0.0
  9
$CHAMFERB
 40
0.0
  9
$CHAMFERC
 40
0.0
  9
$CHAMFERD
 40
0.0
  9
$SKPOLY
 70
     0
  9
$TDCREATE
 40
2455036.683208252
  9
$TDUCREATE
 40
2455036.849874919
  9
$TDUPDATE
 40
2455036.683208252
  9
$TDUUPDATE
 40
2455036.849874919
  9
$TDINDWG
 40
0.0000009028
  9
$TDUSRTIMER
 40
0.0000009028
  9
$USRTIMER
 70
     1
  9
$ANGBASE
 50
0.0
  9
$ANGDIR
 70
     0
  9
$PDMODE
 70
     0
  9
$PDSIZE
 40
0.0
  9
$PLINEWID
 40
0.0
  9
$SPLFRAME
 70
     0
  9
$SPLINETYPE
 70
     6
  9
$SPLINESEGS
 70
     8
  9
$HANDSEED
  5
725
  9
$SURFTAB1
 70
     6
  9
$SURFTAB2
 70
     6
  9
$SURFTYPE
 70
     6
  9
$SURFU
 70
     6
  9
$SURFV
 70
     6
  9
$UCSBASE
  2

  9
$UCSNAME
  2

  9
$UCSORG
 10
0.0
 20
0.0
 30
0.0
  9
$UCSXDIR
 10
1.0
 20
0.0
 30
0.0
  9
$UCSYDIR
 10
0.0
 20
1.0
 30
0.0
  9
$UCSORTHOREF
  2

  9
$UCSORTHOVIEW
 70
     0
  9
$UCSORGTOP
 10
0.0
 20
0.0
 30
0.0
  9
$UCSORGBOTTOM
 10
0.0
 20
0.0
 30
0.0
  9
$UCSORGLEFT
 10
0.0
 20
0.0
 30
0.0
  9
$UCSORGRIGHT
 10
0.0
 20
0.0
 30
0.0
  9
$UCSORGFRONT
 10
0.0
 20
0.0
 30
0.0
  9
$UCSORGBACK
 10
0.0
 20
0.0
 30
0.0
  9
$PUCSBASE
  2

  9
$PUCSNAME
  2

  9
$PUCSORG
 10
0.0
 20
0.0
 30
0.0
  9
$PUCSXDIR
 10
1.0
 20
0.0
 30
0.0
  9
$PUCSYDIR
 10
0.0
 20
1.0
 30
0.0
  9
$PUCSORTHOREF
  2

  9
$PUCSORTHOVIEW
 70
     0
  9
$PUCSORGTOP
 10
0.0
 20
0.0
 30
0.0
  9
$PUCSORGBOTTOM
 10
0.0
 20
0.0
 30
0.0
  9
$PUCSORGLEFT
 10
0.0
 20
0.0
 30
0.0
  9
$PUCSORGRIGHT
 10
0.0
 20
0.0
 30
0.0
  9
$PUCSORGFRONT
 10
0.0
 20
0.0
 30
0.0
  9
$PUCSORGBACK
 10
0.0
 20
0.0
 30
0.0
  9
$USERI1
 70
     0
  9
$USERI2
 70
     0
  9
$USERI3
 70
     0
  9
$USERI4
 70
     0
  9
$USERI5
 70
     0
  9
$USERR1
 40
0.0
  9
$USERR2
 40
0.0
  9
$USERR3
 40
0.0
  9
$USERR4
 40
0.0
  9
$USERR5
 40
0.0
  9
$WORLDVIEW
 70
     1
  9
$SHADEDGE
 70
     3
  9
$SHADEDIF
 70
    70
  9
$TILEMODE
 70
     1
  9
$MAXACTVP
 70
    64
  9
$PINSBASE
 10
0.0
 20
0.0
 30
0.0
  9
$PLIMCHECK
 70
     0
  9
$PEXTMIN
 10
1.000000000000000E+20
 20
1.000000000000000E+20
 30
1.000000000000000E+20
  9
$PEXTMAX
 10
-1.000000000000000E+20
 20
-1.000000000000000E+20
 30
-1.000000000000000E+20
  9
$PLIMMIN
 10
0.0
 20
0.0
  9
$PLIMMAX
 10
12.0
 20
9.0
  9
$UNITMODE
 70
     0
  9
$VISRETAIN
 70
     1
  9
$PLINEGEN
 70
     0
  9
$PSLTSCALE
 70
     1
  9
$TREEDEPTH
 70
  3020
  9
$CMLSTYLE
  2
Standard
  9
$CMLJUST
 70
     0
  9
$CMLSCALE
 40
1.0
  9
$PROXYGRAPHICS
 70
     1
  9
$MEASUREMENT
 70
     0
  9
$CELWEIGHT
370
    -1
  9
$ENDCAPS
280
     0
  9
$JOINSTYLE
280
     0
  9
$LWDISPLAY
290
     0
  9
$INSUNITS
 70
     1
  9
$HYPERLINKBASE
  1

  9
$STYLESHEET
  1

  9
$XEDIT
290
     1
  9
$CEPSNTYPE
380
     0
  9
$PSTYLEMODE
290
     1
  9
$FINGERPRINTGUID
  2
{916E555C-7E53-4E11-956E-66A149F1FDAC}
  9
$VERSIONGUID
  2
{460693B4-2001-4C0C-AC8D-C286F53107B1}
  9
$EXTNAMES
290
     1
  9
$PSVPSCALE
 40
0.0
  9
$OLESTARTUP
290
     0
  0
ENDSEC
  0
SECTION
  2
CLASSES
  0
CLASS
  1
ACDBDICTIONARYWDFLT
  2
AcDbDictionaryWithDefault
  3
ObjectDBX Classes
 90
        0
280
     0
281
     0
  0
CLASS
  1
MATERIAL
  2
AcDbMaterial
  3
ObjectDBX Classes
 90
     1153
280
     0
281
     0
  0
CLASS
  1
VISUALSTYLE
  2
AcDbVisualStyle
  3
ObjectDBX Classes
 90
     4095
280
     0
281
     0
  0
CLASS
  1
SCALE
  2
AcDbScale
  3
ObjectDBX Classes
 90
     1153
280
     0
281
     0
  0
CLASS
  1
TABLESTYLE
  2
AcDbTableStyle
  3
ObjectDBX Classes
 90
     4095
280
     0
281
     0
  0
CLASS
  1
MLEADERSTYLE
  2
AcDbMLeaderStyle
  3
ACDB_MLEADERSTYLE_CLASS
 90
     4095
280
     0
281
     0
  0
CLASS
  1
SUN
  2
AcDbSun
  3
SCENEOE
 90
     1153
280
     0
281
     0
  0
CLASS
  1
DICTIONARYVAR
  2
AcDbDictionaryVar
  3
ObjectDBX Classes
 90
        0
280
     0
281
     0
  0
CLASS
  1
CELLSTYLEMAP
  2
AcDbCellStyleMap
  3
ObjectDBX Classes
 90
     1152
280
     0
281
     0
  0
CLASS
  1
ACDBPLACEHOLDER
  2
AcDbPlaceHolder
  3
ObjectDBX Classes
 90
        0
280
     0
281
     0
  0
CLASS
  1
LAYOUT
  2
AcDbLayout
  3
ObjectDBX Classes
 90
        0
280
     0
281
     0
  0
ENDSEC
  0
SECTION
  2
TABLES
  0
TABLE
  2
VPORT
  5
8
330
0
100
AcDbSymbolTable
 70
     1
  0
VPORT
  5
5F
330
8
100
AcDbSymbolTableRecord
100
AcDbViewportTableRecord
  2
*Active
 70
     0
 10
0.0
 20
0.0
 11
1.0
 21
1.0
 12
0.0
 22
0.0
 13
0.0
 23
0.0
 14
1.0
 24
1.0
 15
0.0
 25
0.0
 16
81.55366331440909
 26
-81.55366331440911
 36
81.55366331440911
 17
0.0000000000002451
 27
-0.0000000000003304
 37
7.499999999999876
 40
95.99999999999999
 41
1.0
 42
50.0
 43
0.0
 44
0.0
 50
0.0
 51
0.0
 71
     0
 72
   100
 73
     1
 74
     1
 75
     0
 76
     0
 77
     0
 78
     0
281
     6
 65
     1
110
0.0
120
0.0
130
0.0
111
1.0
121
0.0
131
0.0
112
0.0
122
1.0
132
0.0
 79
     0
146
0.0
  0
ENDTAB
  0
TABLE
  2
LTYPE
  5
5
330
0
100
AcDbSymbolTable
 70
     1
  0
LTYPE
  5
63
330
5
100
AcDbSymbolTableRecord
100
AcDbLinetypeTableRecord
  2
ByBlock
 70
     0
  3

 72
    65
 73
     0
 40
0.0
  0
LTYPE
  5
64
330
5
100
AcDbSymbolTableRecord
100
AcDbLinetypeTableRecord
  2
ByLayer
 70
     0
  3

 72
    65
 73
     0
 40
0.0
  0
LTYPE
  5
65
330
5
100
AcDbSymbolTableRecord
100
AcDbLinetypeTableRecord
  2
Continuous
 70
     0
  3
Solid line
 72
    65
 73
     0
 40
0.0
  0
ENDTAB
  0
TABLE
  2
LAYER
  5
2
330
0
100
AcDbSymbolTable
 70
     2
  0
LAYER
  5
5C
330
2
100
AcDbSymbolTableRecord
100
AcDbLayerTableRecord
  2
0
 70
     0
 62
     7
  6
Continuous
370
    -3
390
F
  0
LAYER
  5
7F
330
2
100
AcDbSymbolTableRecord
100
AcDbLayerTableRecord
  2
3D-P-SANR-FIXT
 70
     0
 62
     6
  6
Continuous
370
     9
390
F
  0
ENDTAB
  0
TABLE
  2
STYLE
  5
3
330
0
100
AcDbSymbolTable
 70
     2
  0
STYLE
  5
5D
330
3
100
AcDbSymbolTableRecord
100
AcDbTextStyleTableRecord
  2
Standard
 70
     0
 40
0.0
 41
1.0
 50
0.0
 71
     0
 42
0.2
  3
txt
  4

  0
STYLE
  5
62
330
3
100
AcDbSymbolTableRecord
100
AcDbTextStyleTableRecord
  2
Annotative
 70
     0
 40
0.0
 41
1.0
 50
0.0
 71
     0
 42
0.2
  3
txt
  4

1001
AcadAnnotative
1000
AnnotativeData
1002
{
1070
     1
1070
     1
1002
}
  0
ENDTAB
  0
TABLE
  2
VIEW
  5
6
330
0
100
AcDbSymbolTable
 70
     1
  0
VIEW
  5
6F9
330
6
100
AcDbSymbolTableRecord
100
AcDbViewTableRecord
  2
View 1
 70
     0
 40
2400.0
 10
0.0
 20
0.0
 41
2400.0
 11
81.55366331440909
 21
-81.55366331440911
 31
81.55366331440911
 12
0.0000000000002451
 22
-0.0000000000003304
 32
7.499999999999876
 42
50.0
 43
0.0
 44
0.0
 50
0.0
 71
     0
281
     0
 72
     0
  0
ENDTAB
  0
TABLE
  2
UCS
  5
7
330
0
100
AcDbSymbolTable
 70
     0
  0
ENDTAB
  0
TABLE
  2
APPID
  5
9
330
0
100
AcDbSymbolTable
 70
     4
  0
APPID
  5
5E
330
9
100
AcDbSymbolTableRecord
100
AcDbRegAppTableRecord
  2
ACAD
 70
     0
  0
APPID
  5
66
330
9
100
AcDbSymbolTableRecord
100
AcDbRegAppTableRecord
  2
AcadAnnotative
 70
     0
  0
APPID
  5
70
330
9
100
AcDbSymbolTableRecord
100
AcDbRegAppTableRecord
  2
ACAD_MLEADERVER
 70
     0
  0
APPID
  5
7D
330
9
100
AcDbSymbolTableRecord
100
AcDbRegAppTableRecord
  2
REVIT
 70
     0
  0
ENDTAB
  0
TABLE
  2
DIMSTYLE
  5
A
330
0
100
AcDbSymbolTable
 70
     2
100
AcDbDimStyleTable
 71
     0
  0
DIMSTYLE
105
60
330
A
100
AcDbSymbolTableRecord
100
AcDbDimStyleTableRecord
  2
Standard
 70
     0
340
5D
  0
DIMSTYLE
105
61
330
A
100
AcDbSymbolTableRecord
100
AcDbDimStyleTableRecord
  2
Annotative
 70
     0
340
5D
1001
AcadAnnotative
1000
AnnotativeData
1002
{
1070
     1
1070
     1
1002
}
  0
ENDTAB
  0
TABLE
  2
BLOCK_RECORD
  5
1
330
0
100
AcDbSymbolTable
 70
     2
  0
BLOCK_RECORD
  5
75
330
1
100
AcDbSymbolTableRecord
100
AcDbBlockTableRecord
  2
*Model_Space
340
78
  0
BLOCK_RECORD
  5
71
330
1
100
AcDbSymbolTableRecord
100
AcDbBlockTableRecord
  2
*Paper_Space
340
74
  0
BLOCK_RECORD
  5
79
330
1
100
AcDbSymbolTableRecord
100
AcDbBlockTableRecord
  2
*Paper_Space0
340
7C
  0
BLOCK_RECORD
  5
AA
330
1
100
AcDbSymbolTableRecord
100
AcDbBlockTableRecord
  2
FamilyGeomCombi_698-View 10
340
0
102
{BLKREFS
331
506
102
}
  0
ENDTAB
  0
ENDSEC
  0
SECTION
  2
BLOCKS
  0
BLOCK
  5
76
330
75
100
AcDbEntity
  8
0
100
AcDbBlockBegin
  2
*Model_Space
 70
     0
 10
0.0
 20
0.0
 30
0.0
  3
*Model_Space
  1

  0
ENDBLK
  5
77
330
75
100
AcDbEntity
  8
0
100
AcDbBlockEnd
  0
BLOCK
  5
72
330
71
100
AcDbEntity
 67
     1
  8
0
100
AcDbBlockBegin
  2
*Paper_Space
 70
     0
 10
0.0
 20
0.0
 30
0.0
  3
*Paper_Space
  1

  0
ENDBLK
  5
73
330
71
100
AcDbEntity
 67
     1
  8
0
100
AcDbBlockEnd
  0
BLOCK
  5
7A
330
79
100
AcDbEntity
 67
     1
  8
0
100
AcDbBlockBegin
  2
*Paper_Space0
 70
     0
 10
0.0
 20
0.0
 30
0.0
  3
*Paper_Space0
  1

  0
ENDBLK
  5
7B
330
79
100
AcDbEntity
 67
     1
  8
0
100
AcDbBlockEnd
  0
BLOCK
  5
504
330
AA
100
AcDbEntity
  8
0
100
AcDbBlockBegin
  2
FamilyGeomCombi_698-View 10
 70
     0
 10
0.0
 20
0.0
 30
0.0
  3
FamilyGeomCombi_698-View 10
  1

  0
POLYLINE
  5
AB
330
AA
100
AcDbEntity
  8
3D-P-SANR-FIXT
100
AcDbPolyFaceMesh
 66
     1
 10
0.0
 20
0.0
 30
0.0
 70
    64
 71
   112
 72
    76
1001
REVIT
1002
{
1070
     4
1000
6241
1002
}
1002
{
1070
     2
1000
-2001160
1002
}
  0
VERTEX
  5
AC
330
AB
100
AcDbEntity
  8
3D-P-SANR-FIXT
100
AcDbVertex
100
AcDbPolyFaceMeshVertex
 10
-9.999999761581419
 20
-6.62499976158142
 30
19.99999952316284
 70
   192
  0
VERTEX
  5
AD
330
AB
100
AcDbEntity
  8
3D-P-SANR-FIXT
100
AcDbVertex
100
AcDbPolyFaceMeshVertex
 10
-9.999999761581419
 20
-6.62499976158142
 30
-0.0000000000000746
 70
   192
  0
VERTEX
  5
AE
330
AB
100
AcDbEntity
  8
3D-P-SANR-FIXT
100
AcDbVertex
100
AcDbPolyFaceMeshVertex
 10
9.999999761581419
 20
-6.62499976158142
 30
-0.0000000000001386
 70
   192
  0
VERTEX
  5
AF
330
AB
100
AcDbEntity
  8
3D-P-SANR-FIXT
100
AcDbVertex
100
AcDbPolyFaceMeshVertex
 10
9.999999761581419
 20
-6.62499976158142
 30
19.99999952316284
 70
   192
  0
VERTEX
  5
B0
330
AB
100
AcDbEntity
  8
3D-P-SANR-FIXT
100
AcDbVertex
100
AcDbPolyFaceMeshVertex
 10
9.863703489303587
 20
-6.62499976158142
 30
21.03527641296386
 70
   192
  0
VERTEX
  5
B1
330
AB
100
AcDbEntity
  8
3D-P-SANR-FIXT
100
AcDbVertex
100
AcDbPolyFaceMeshVertex
 10
9.464101552963255
 20
-6.62499976158142
 30
22.00000047683715
 70
   192
  0
VERTEX
  5
B2
330
AB
100
AcDbEntity
  8
3D-P-SANR-FIXT
100
AcDbVertex
100
AcDbPolyFaceMeshVertex
 10
8.828427314758299
 20
-6.62499976158142
 30
22.82842683792114
 70
   192
  0
VERTEX
  5
B3
330
AB
100
AcDbEntity
  8
3D-P-SANR-FIXT
100
AcDbVertex
100
AcDbPolyFaceMeshVertex
 10
8.000000238418577
 20
-6.62499976158142
 30
23.46410179138183
 70
   192
  0
VERTEX
  5
B4
330
AB
100
AcDbEntity
  8
3D-P-SANR-FIXT
100
AcDbVertex
100
AcDbPolyFaceMeshVertex
 10
7.035276174545287
 20
-6.62499976158142
 30
23.86370372772216
 70
   192
  0
VERTEX
  5
B5
330
AB
100
AcDbEntity
  8
3D-P-SANR-FIXT
100
AcDbVertex
100
AcDbPolyFaceMeshVertex
 10
5.999999999999999
 20
-6.62499976158142
 30
24.0
 70
   192
  0
VERTEX
  5
B6
330
AB
100
AcDbEntity
  8
3D-P-SANR-FIXT
100
AcDbVertex
100
AcDbPolyFaceMeshVertex
 10
-5.999999999999999
 20
-6.62499976158142
 30
24.0
 70
   192
  0
VERTEX
  5
B7
330
AB
100
AcDbEntity
  8
3D-P-SANR-FIXT
100
AcDbVertex
100
AcDbPolyFaceMeshVertex
 10
-7.035276174545287
 20
-6.62499976158142
 30
23.86370372772216
 70
   192
  0
VERTEX
  5
B8
330
AB
100
AcDbEntity
  8
3D-P-SANR-FIXT
100
AcDbVertex
100
AcDbPolyFaceMeshVertex
 10
-8.000000238418577
 20
-6.62499976158142
 30
23.46410179138183
 70
   192
  0
VERTEX
  5
B9
330
AB
100
AcDbEntity
  8
3D-P-SANR-FIXT
100
AcDbVertex
100
AcDbPolyFaceMeshVertex
 10
-8.828427314758299
 20
-6.62499976158142
 30
22.82842683792114
 70
   192
  0
VERTEX
  5
BA
330
AB
100
AcDbEntity
  8
3D-P-SANR-FIXT
100
AcDbVertex
100
AcDbPolyFaceMeshVertex
 10
-9.464101552963255
 20
-6.62499976158142
 30
22.00000047683715
 70
   192
  0
VERTEX
  5
BB
330
AB
100
AcDbEntity
  8
3D-P-SANR-FIXT
100
AcDbVertex
100
AcDbPolyFaceMeshVertex
 10
-9.863703489303587
 20
-6.62499976158142
 30
21.03527641296386
 70
   192
  0
VERTEX
  5
BC
330
AB
100
AcDbEntity
  8
3D-P-SANR-FIXT
100
AcDbVertex
100
AcDbPolyFaceMeshVertex
 10
1.000000029802322
 20
-6.62499976158142
 30
10.74999976158142
 70
   192
  0
VERTEX
  5
BD
330
AB
100
AcDbEntity
  8
3D-P-SANR-FIXT
100
AcDbVertex
100
AcDbPolyFaceMeshVertex
 10
0.9659257829189298
 20
-6.62499976158142
 30
10.49118089675903
 70
   192
  0
VERTEX
  5
BE
330
AB
100
AcDbEntity
  8
3D-P-SANR-FIXT
100
AcDbVertex
100
AcDbPolyFaceMeshVertex
 10
0.866025388240814
 20
-6.62499976158142
 30
10.25000023841857
 70
   192
  0
VERTEX
  5
BF
330
AB
100
AcDbEntity
  8
3D-P-SANR-FIXT
100
AcDbVertex
100
AcDbPolyFaceMeshVertex
 10
0.7071067839860916
 20
-6.62499976158142
 30
10.04289293289184
 70
   192
  0
VERTEX
  5
C0
330
AB
100
AcDbEntity
  8
3D-P-SANR-FIXT
100
AcDbVertex
100
AcDbPolyFaceMeshVertex
 10
0.5000000149011611
 20
-6.62499976158142
 30
9.883974552154539
 70
   192
  0
VERTEX
  5
C1
330
AB
100
AcDbEntity
  8
3D-P-SANR-FIXT
100
AcDbVertex
100
AcDbPolyFaceMeshVertex
 10
0.258819043636322
 20
-6.62499976158142
 30
9.784074068069456
 70
   192
  0
VERTEX
  5
C2
330
AB
100
AcDbEntity
  8
3D-P-SANR-FIXT
100
AcDbVertex
100
AcDbPolyFaceMeshVertex
 10
0.0000000000003668
 20
-6.62499976158142
 30
9.749999999999998
 70
   192
  0
VERTEX
  5
C3
330
AB
100
AcDbEntity
  8
3D-P-SANR-FIXT
100
AcDbVertex
100
AcDbPolyFaceMeshVertex
 10
-0.258819043636322
 20
-6.62499976158142
 30
9.784074068069456
 70
   192
  0
VERTEX
  5
C4
330
AB
100
AcDbEntity
  8
3D-P-SANR-FIXT
100
AcDbVertex
100
AcDbPolyFaceMeshVertex
 10
-0.5000000149011611
 20
-6.62499976158142
 30
9.883974552154539
 70
   192
  0
VERTEX
  5
C5
330
AB
100
AcDbEntity
  8
3D-P-SANR-FIXT
100
AcDbVertex
100
AcDbPolyFaceMeshVertex
 10
-0.7071067839860916
 20
-6.62499976158142
 30
10.04289293289184
 70
   192
  0
VERTEX
  5
C6
330
AB
100
AcDbEntity
  8
3D-P-SANR-FIXT
100
AcDbVertex
100
AcDbPolyFaceMeshVertex
 10
-0.866025388240814
 20
-6.62499976158142
 30
10.25000023841857
 70
   192
  0
VERTEX
  5
C7
330
AB
100
AcDbEntity
  8
3D-P-SANR-FIXT
100
AcDbVertex
100
AcDbPolyFaceMeshVertex
 10
-0.9659257829189298
 20
-6.62499976158142
 30
10.49118089675903
 70
   192
  0
VERTEX
  5
C8
330
AB
100
AcDbEntity
  8
3D-P-SANR-FIXT
100
AcDbVertex
100
AcDbPolyFaceMeshVertex
 10
-1.000000029802322
 20
-6.62499976158142
 30
10.74999976158142
 70
   192
  0
VERTEX
  5
C9
330
AB
100
AcDbEntity
  8
3D-P-SANR-FIXT
100
AcDbVertex
100
AcDbPolyFaceMeshVertex
 10
-0.9659257829189298
 20
-6.62499976158142
 30
11.00881934165954
 70
   192
  0
VERTEX
  5
CA
330
AB
100
AcDbEntity
  8
3D-P-SANR-FIXT
100
AcDbVertex
100
AcDbPolyFaceMeshVertex
 10
-0.866025388240814
 20
-6.62499976158142
 30
11.25
 70
   192
  0
VERTEX
  5
CB
330
AB
100
AcDbEntity
  8
3D-P-SANR-FIXT
100
AcDbVertex
100
AcDbPolyFaceMeshVertex
 10
-0.7071067839860916
 20
-6.62499976158142
 30
11.45710659027099
 70
   192
  0
VERTEX
  5
CC
330
AB
100
AcDbEntity
  8
3D-P-SANR-FIXT
100
AcDbVertex
100
AcDbPolyFaceMeshVertex
 10
-0.5000000149011611
 20
-6.62499976158142
 30
11.61602568626403
 70
   192
  0
VERTEX
  5
CD
330
AB
100
AcDbEntity
  8
3D-P-SANR-FIXT
100
AcDbVertex
100
AcDbPolyFaceMeshVertex
 10
-0.258819043636322
 20
-6.62499976158142
 30
11.71592617034912
 70
   192
  0
VERTEX
  5
CE
330
AB
100
AcDbEntity
  8
3D-P-SANR-FIXT
100
AcDbVertex
100
AcDbPolyFaceMeshVertex
 10
0.0000000000003677
 20
-6.62499976158142
 30
11.75000023841858
 70
   192
  0
VERTEX
  5
CF
330
AB
100
AcDbEntity
  8
3D-P-SANR-FIXT
100
AcDbVertex
100
AcDbPolyFaceMeshVertex
 10
0.258819043636322
 20
-6.62499976158142
 30
11.71592617034912
 70
   192
  0
VERTEX
  5
D0
330
AB
100
AcDbEntity
  8
3D-P-SANR-FIXT
100
AcDbVertex
100
AcDbPolyFaceMeshVertex
 10
0.5000000149011611
 20
-6.62499976158142
 30
11.61602568626403
 70
   192
  0
VERTEX
  5
D1
330
AB
100
AcDbEntity
  8
3D-P-SANR-FIXT
100
AcDbVertex
100
AcDbPolyFaceMeshVertex
 10
0.7071067839860916
 20
-6.62499976158142
 30
11.45710659027099
 70
   192
  0
VERTEX
  5
D2
330
AB
100
AcDbEntity
  8
3D-P-SANR-FIXT
100
AcDbVertex
100
AcDbPolyFaceMeshVertex
 10
0.866025388240814
 20
-6.62499976158142
 30
11.25
 70
   192
  0
VERTEX
  5
D3
330
AB
100
AcDbEntity
  8
3D-P-SANR-FIXT
100
AcDbVertex
100
AcDbPolyFaceMeshVertex
 10
0.9659257829189298
 20
-6.62499976158142
 30
11.00881934165954
 70
   192
  0
VERTEX
  5
D4
330
AB
100
AcDbEntity
  8
3D-P-SANR-FIXT
100
AcDbVertex
100
AcDbPolyFaceMeshVertex
 10
2.624999999999999
 20
-6.62499976158142
 30
7.124999999999999
 70
   192
  0
VERTEX
  5
D5
330
AB
100
AcDbEntity
  8
3D-P-SANR-FIXT
100
AcDbVertex
100
AcDbPolyFaceMeshVertex
 10
2.603703618049621
 20
-6.62499976158142
 30
6.96323776245117
 70
   192
  0
VERTEX
  5
D6
330
AB
100
AcDbEntity
  8
3D-P-SANR-FIXT
100
AcDbVertex
100
AcDbPolyFaceMeshVertex
 10
2.541265904903411
 20
-6.62499976158142
 30
6.81249976158142
 70
   192
  0
VERTEX
  5
D7
330
AB
100
AcDbEntity
  8
3D-P-SANR-FIXT
100
AcDbVertex
100
AcDbPolyFaceMeshVertex
 10
2.441941738128661
 20
-6.62499976158142
 30
6.683058500289916
 70
   192
  0
VERTEX
  5
D8
330
AB
100
AcDbEntity
  8
3D-P-SANR-FIXT
100
AcDbVertex
100
AcDbPolyFaceMeshVertex
 10
2.312499940395354
 20
-6.62499976158142
 30
6.583733797073363
 70
   192
  0
VERTEX
  5
D9
330
AB
100
AcDbEntity
  8
3D-P-SANR-FIXT
100
AcDbVertex
100
AcDbPolyFaceMeshVertex
 10
2.161761939525603
 20
-6.62499976158142
 30
6.521296262741087
 70
   192
  0
VERTEX
  5
DA
330
AB
100
AcDbEntity
  8
3D-P-SANR-FIXT
100
AcDbVertex
100
AcDbPolyFaceMeshVertex
 10
2.000000059604644
 20
-6.62499976158142
 30
6.500000238418578
 70
   192
  0
VERTEX
  5
DB
330
AB
100
AcDbEntity
  8
3D-P-SANR-FIXT
100
AcDbVertex
100
AcDbPolyFaceMeshVertex
 10
1.838238179683685
 20
-6.62499976158142
 30
6.521296262741087
 70
   192
  0
VERTEX
  5
DC
330
AB
100
AcDbEntity
  8
3D-P-SANR-FIXT
100
AcDbVertex
100
AcDbPolyFaceMeshVertex
 10
1.687499999999999
 20
-6.62499976158142
 30
6.583733797073363
 70
   192
  0
VERTEX
  5
DD
330
AB
100
AcDbEntity
  8
3D-P-SANR-FIXT
100
AcDbVertex
100
AcDbPolyFaceMeshVertex
 10
1.558058202266692
 20
-6.62499976158142
 30
6.683058500289916
 70
   192
  0
VERTEX
  5
DE
330
AB
100
AcDbEntity
  8
3D-P-SANR-FIXT
100
AcDbVertex
100
AcDbPolyFaceMeshVertex
 10
1.45873412489891
 20
-6.62499976158142
 30
6.81249976158142
 70
   192
  0
VERTEX
  5
DF
330
AB
100
AcDbEntity
  8
3D-P-SANR-FIXT
100
AcDbVertex
100
AcDbPolyFaceMeshVertex
 10
1.396296322345733
 20
-6.62499976158142
 30
6.96323776245117
 70
   192
  0
VERTEX
  5
E0
330
AB
100
AcDbEntity
  8
3D-P-SANR-FIXT
100
AcDbVertex
100
AcDbPolyFaceMeshVertex
 10
1.375000029802322
 20
-6.62499976158142
 30
7.124999999999999
 70
   192
  0
VERTEX
  5
E1
330
AB
100
AcDbEntity
  8
3D-P-SANR-FIXT
100
AcDbVertex
100
AcDbPolyFaceMeshVertex
 10
1.396296322345733
 20
-6.62499976158142
 30
7.286762237548827
 70
   192
  0
VERTEX
  5
E2
330
AB
100
AcDbEntity
  8
3D-P-SANR-FIXT
100
AcDbVertex
100
AcDbPolyFaceMeshVertex
 10
1.45873412489891
 20
-6.62499976158142
 30
7.437500238418578
 70
   192
  0
VERTEX
  5
E3
330
AB
100
AcDbEntity
  8
3D-P-SANR-FIXT
100
AcDbVertex
100
AcDbPolyFaceMeshVertex
 10
1.558058202266692
 20
-6.62499976158142
 30
7.566941499710082
 70
   192
  0
VERTEX
  5
E4
330
AB
100
AcDbEntity
  8
3D-P-SANR-FIXT
100
AcDbVertex
100
AcDbPolyFaceMeshVertex
 10
1.687499999999999
 20
-6.62499976158142
 30
7.666266202926634
 70
   192
  0
VERTEX
  5
E5
330
AB
100
AcDbEntity
  8
3D-P-SANR-FIXT
100
AcDbVertex
100
AcDbPolyFaceMeshVertex
 10
1.838238179683685
 20
-6.62499976158142
 30
7.72870373725891
 70
   192
  0
VERTEX
  5
E6
330
AB
100
AcDbEntity
  8
3D-P-SANR-FIXT
100
AcDbVertex
100
AcDbPolyFaceMeshVertex
 10
2.000000059604644
 20
-6.62499976158142
 30
7.74999976158142
 70
   192
  0
VERTEX
  5
E7
330
AB
100
AcDbEntity
  8
3D-P-SANR-FIXT
100
AcDbVertex
100
AcDbPolyFaceMeshVertex
 10
2.161761939525603
 20
-6.62499976158142
 30
7.72870373725891
 70
   192
  0
VERTEX
  5
E8
330
AB
100
AcDbEntity
  8
3D-P-SANR-FIXT
100
AcDbVertex
100
AcDbPolyFaceMeshVertex
 10
2.312499940395354
 20
-6.62499976158142
 30
7.666266202926634
 70
   192
  0
VERTEX
  5
E9
330
AB
100
AcDbEntity
  8
3D-P-SANR-FIXT
100
AcDbVertex
100
AcDbPolyFaceMeshVertex
 10
2.441941738128661
 20
-6.62499976158142
 30
7.566941499710082
 70
   192
  0
VERTEX
  5
EA
330
AB
100
AcDbEntity
  8
3D-P-SANR-FIXT
100
AcDbVertex
100
AcDbPolyFaceMeshVertex
 10
2.541265904903411
 20
-6.62499976158142
 30
7.437500238418578
 70
   192
  0
VERTEX
  5
EB
330
AB
100
AcDbEntity
  8
3D-P-SANR-FIXT
100
AcDbVertex
100
AcDbPolyFaceMeshVertex
 10
2.603703618049621
 20
-6.62499976158142
 30
7.286762237548827
 70
   192
  0
VERTEX
  5
EC
330
AB
100
AcDbEntity
  8
3D-P-SANR-FIXT
100
AcDbVertex
100
AcDbPolyFaceMeshVertex
 10
0.6249999850988388
 20
-6.62499976158142
 30
7.124999999999999
 70
   192
  0
VERTEX
  5
ED
330
AB
100
AcDbEntity
  8
3D-P-SANR-FIXT
100
AcDbVertex
100
AcDbPolyFaceMeshVertex
 10
0.6037036478519439
 20
-6.62499976158142
 30
6.96323776245117
 70
   192
  0
VERTEX
  5
EE
330
AB
100
AcDbEntity
  8
3D-P-SANR-FIXT
100
AcDbVertex
100
AcDbPolyFaceMeshVertex
 10
0.5412658900022506
 20
-6.62499976158142
 30
6.81249976158142
 70
   192
  0
VERTEX
  5
EF
330
AB
100
AcDbEntity
  8
3D-P-SANR-FIXT
100
AcDbVertex
100
AcDbPolyFaceMeshVertex
 10
0.4419417232275009
 20
-6.62499976158142
 30
6.683058500289916
 70
   192
  0
VERTEX
  5
F0
330
AB
100
AcDbEntity
  8
3D-P-SANR-FIXT
100
AcDbVertex
100
AcDbPolyFaceMeshVertex
 10
0.3124999925494194
 20
-6.62499976158142
 30
6.583733797073363
 70
   192
  0
VERTEX
  5
F1
330
AB
100
AcDbEntity
  8
3D-P-SANR-FIXT
100
AcDbVertex
100
AcDbPolyFaceMeshVertex
 10
0.1617619022727012
 20
-6.62499976158142
 30
6.521296262741087
 70
   192
  0
VERTEX
  5
F2
330
AB
100
AcDbEntity
  8
3D-P-SANR-FIXT
100
AcDbVertex
100
AcDbPolyFaceMeshVertex
 10
0.0000000000003246
 20
-6.62499976158142
 30
6.500000238418578
 70
   192
  0
VERTEX
  5
F3
330
AB
100
AcDbEntity
  8
3D-P-SANR-FIXT
100
AcDbVertex
100
AcDbPolyFaceMeshVertex
 10
-0.1617619022727012
 20
-6.62499976158142
 30
6.521296262741087
 70
   192
  0
VERTEX
  5
F4
330
AB
100
AcDbEntity
  8
3D-P-SANR-FIXT
100
AcDbVertex
100
AcDbPolyFaceMeshVertex
 10
-0.3124999925494194
 20
-6.62499976158142
 30
6.583733797073363
 70
   192
  0
VERTEX
  5
F5
330
AB
100
AcDbEntity
  8
3D-P-SANR-FIXT
100
AcDbVertex
100
AcDbPolyFaceMeshVertex
 10
-0.4419417232275009
 20
-6.62499976158142
 30
6.683058500289916
 70
   192
  0
VERTEX
  5
F6
330
AB
100
AcDbEntity
  8
3D-P-SANR-FIXT
100
AcDbVertex
100
AcDbPolyFaceMeshVertex
 10
-0.5412658900022506
 20
-6.62499976158142
 30
6.81249976158142
 70
   192
  0
VERTEX
  5
F7
330
AB
100
AcDbEntity
  8
3D-P-SANR-FIXT
100
AcDbVertex
100
AcDbPolyFaceMeshVertex
 10
-0.6037036478519439
 20
-6.62499976158142
 30
6.96323776245117
 70
   192
  0
VERTEX
  5
F8
330
AB
100
AcDbEntity
  8
3D-P-SANR-FIXT
100
AcDbVertex
100
AcDbPolyFaceMeshVertex
 10
-0.6249999850988388
 20
-6.62499976158142
 30
7.124999999999999
 70
   192
  0
VERTEX
  5
F9
330
AB
100
AcDbEntity
  8
3D-P-SANR-FIXT
100
AcDbVertex
100
AcDbPolyFaceMeshVertex
 10
-0.6037036478519439
 20
-6.62499976158142
 30
7.286762237548827
 70
   192
  0
VERTEX
  5
FA
330
AB
100
AcDbEntity
  8
3D-P-SANR-FIXT
100
AcDbVertex
100
AcDbPolyFaceMeshVertex
 10
-0.5412658900022506
 20
-6.62499976158142
 30
7.437500238418578
 70
   192
  0
VERTEX
  5
FB
330
AB
100
AcDbEntity
  8
3D-P-SANR-FIXT
100
AcDbVertex
100
AcDbPolyFaceMeshVertex
 10
-0.4419417232275009
 20
-6.62499976158142
 30
7.566941499710082
 70
   192
  0
VERTEX
  5
FC
330
AB
100
AcDbEntity
  8
3D-P-SANR-FIXT
100
AcDbVertex
100
AcDbPolyFaceMeshVertex
 10
-0.3124999925494194
 20
-6.62499976158142
 30
7.666266202926634
 70
   192
  0
VERTEX
  5
FD
330
AB
100
AcDbEntity
  8
3D-P-SANR-FIXT
100
AcDbVertex
100
AcDbPolyFaceMeshVertex
 10
-0.1617619022727012
 20
-6.62499976158142
 30
7.72870373725891
 70
   192
  0
VERTEX
  5
FE
330
AB
100
AcDbEntity
  8
3D-P-SANR-FIXT
100
AcDbVertex
100
AcDbPolyFaceMeshVertex
 10
0.0000000000003213
 20
-6.62499976158142
 30
7.74999976158142
 70
   192
  0
VERTEX
  5
FF
330
AB
100
AcDbEntity
  8
3D-P-SANR-FIXT
100
AcDbVertex
100
AcDbPolyFaceMeshVertex
 10
0.1617619022727012
 20
-6.62499976158142
 30
7.72870373725891
 70
   192
  0
VERTEX
  5
100
330
AB
100
AcDbEntity
  8
3D-P-SANR-FIXT
100
AcDbVertex
100
AcDbPolyFaceMeshVertex
 10
0.3124999925494194
 20
-6.62499976158142
 30
7.666266202926634
 70
   192
  0
VERTEX
  5
101
330
AB
100
AcDbEntity
  8
3D-P-SANR-FIXT
100
AcDbVertex
100
AcDbPolyFaceMeshVertex
 10
0.4419417232275009
 20
-6.62499976158142
 30
7.566941499710082
 70
   192
  0
VERTEX
  5
102
330
AB
100
AcDbEntity
  8
3D-P-SANR-FIXT
100
AcDbVertex
100
AcDbPolyFaceMeshVertex
 10
0.5412658900022506
 20
-6.62499976158142
 30
7.437500238418578
 70
   192
  0
VERTEX
  5
103
330
AB
100
AcDbEntity
  8
3D-P-SANR-FIXT
100
AcDbVertex
100
AcDbPolyFaceMeshVertex
 10
0.6037036478519439
 20
-6.62499976158142
 30
7.286762237548827
 70
   192
  0
VERTEX
  5
104
330
AB
100
AcDbEntity
  8
3D-P-SANR-FIXT
100
AcDbVertex
100
AcDbPolyFaceMeshVertex
 10
-1.375000029802322
 20
-6.62499976158142
 30
7.124999999999999
 70
   192
  0
VERTEX
  5
105
330
AB
100
AcDbEntity
  8
3D-P-SANR-FIXT
100
AcDbVertex
100
AcDbPolyFaceMeshVertex
 10
-1.396296322345733
 20
-6.62499976158142
 30
6.96323776245117
 70
   192
  0
VERTEX
  5
106
330
AB
100
AcDbEntity
  8
3D-P-SANR-FIXT
100
AcDbVertex
100
AcDbPolyFaceMeshVertex
 10
-1.45873412489891
 20
-6.62499976158142
 30
6.81249976158142
 70
   192
  0
VERTEX
  5
107
330
AB
100
AcDbEntity
  8
3D-P-SANR-FIXT
100
AcDbVertex
100
AcDbPolyFaceMeshVertex
 10
-1.558058202266692
 20
-6.62499976158142
 30
6.683058500289916
 70
   192
  0
VERTEX
  5
108
330
AB
100
AcDbEntity
  8
3D-P-SANR-FIXT
100
AcDbVertex
100
AcDbPolyFaceMeshVertex
 10
-1.687499999999999
 20
-6.62499976158142
 30
6.583733797073363
 70
   192
  0
VERTEX
  5
109
330
AB
100
AcDbEntity
  8
3D-P-SANR-FIXT
100
AcDbVertex
100
AcDbPolyFaceMeshVertex
 10
-1.838238179683685
 20
-6.62499976158142
 30
6.521296262741087
 70
   192
  0
VERTEX
  5
10A
330
AB
100
AcDbEntity
  8
3D-P-SANR-FIXT
100
AcDbVertex
100
AcDbPolyFaceMeshVertex
 10
-2.000000059604644
 20
-6.62499976158142
 30
6.500000238418578
 70
   192
  0
VERTEX
  5
10B
330
AB
100
AcDbEntity
  8
3D-P-SANR-FIXT
100
AcDbVertex
100
AcDbPolyFaceMeshVertex
 10
-2.161761939525603
 20
-6.62499976158142
 30
6.521296262741087
 70
   192
  0
VERTEX
  5
10C
330
AB
100
AcDbEntity
  8
3D-P-SANR-FIXT
100
AcDbVertex
100
AcDbPolyFaceMeshVertex
 10
-2.312499940395354
 20
-6.62499976158142
 30
6.583733797073363
 70
   192
  0
VERTEX
  5
10D
330
AB
100
AcDbEntity
  8
3D-P-SANR-FIXT
100
AcDbVertex
100
AcDbPolyFaceMeshVertex
 10
-2.441941738128661
 20
-6.62499976158142
 30
6.683058500289916
 70
   192
  0
VERTEX
  5
10E
330
AB
100
AcDbEntity
  8
3D-P-SANR-FIXT
100
AcDbVertex
100
AcDbPolyFaceMeshVertex
 10
-2.541265904903411
 20
-6.62499976158142
 30
6.81249976158142
 70
   192
  0
VERTEX
  5
10F
330
AB
100
AcDbEntity
  8
3D-P-SANR-FIXT
100
AcDbVertex
100
AcDbPolyFaceMeshVertex
 10
-2.603703618049621
 20
-6.62499976158142
 30
6.96323776245117
 70
   192
  0
VERTEX
  5
110
330
AB
100
AcDbEntity
  8
3D-P-SANR-FIXT
100
AcDbVertex
100
AcDbPolyFaceMeshVertex
 10
-2.624999999999999
 20
-6.62499976158142
 30
7.124999999999999
 70
   192
  0
VERTEX
  5
111
330
AB
100
AcDbEntity
  8
3D-P-SANR-FIXT
100
AcDbVertex
100
AcDbPolyFaceMeshVertex
 10
-2.603703618049621
 20
-6.62499976158142
 30
7.286762237548827
 70
   192
  0
VERTEX
  5
112
330
AB
100
AcDbEntity
  8
3D-P-SANR-FIXT
100
AcDbVertex
100
AcDbPolyFaceMeshVertex
 10
-2.541265904903411
 20
-6.62499976158142
 30
7.437500238418578
 70
   192
  0
VERTEX
  5
113
330
AB
100
AcDbEntity
  8
3D-P-SANR-FIXT
100
AcDbVertex
100
AcDbPolyFaceMeshVertex
 10
-2.441941738128661
 20
-6.62499976158142
 30
7.566941499710082
 70
   192
  0
VERTEX
  5
114
330
AB
100
AcDbEntity
  8
3D-P-SANR-FIXT
100
AcDbVertex
100
AcDbPolyFaceMeshVertex
 10
-2.312499940395354
 20
-6.62499976158142
 30
7.666266202926634
 70
   192
  0
VERTEX
  5
115
330
AB
100
AcDbEntity
  8
3D-P-SANR-FIXT
100
AcDbVertex
100
AcDbPolyFaceMeshVertex
 10
-2.161761939525603
 20
-6.62499976158142
 30
7.72870373725891
 70
   192
  0
VERTEX
  5
116
330
AB
100
AcDbEntity
  8
3D-P-SANR-FIXT
100
AcDbVertex
100
AcDbPolyFaceMeshVertex
 10
-2.000000059604644
 20
-6.62499976158142
 30
7.74999976158142
 70
   192
  0
VERTEX
  5
117
330
AB
100
AcDbEntity
  8
3D-P-SANR-FIXT
100
AcDbVertex
100
AcDbPolyFaceMeshVertex
 10
-1.838238179683685
 20
-6.62499976158142
 30
7.72870373725891
 70
   192
  0
VERTEX
  5
118
330
AB
100
AcDbEntity
  8
3D-P-SANR-FIXT
100
AcDbVertex
100
AcDbPolyFaceMeshVertex
 10
-1.687499999999999
 20
-6.62499976158142
 30
7.666266202926634
 70
   192
  0
VERTEX
  5
119
330
AB
100
AcDbEntity
  8
3D-P-SANR-FIXT
100
AcDbVertex
100
AcDbPolyFaceMeshVertex
 10
-1.558058202266692
 20
-6.62499976158142
 30
7.566941499710082
 70
   192
  0
VERTEX
  5
11A
330
AB
100
AcDbEntity
  8
3D-P-SANR-FIXT
100
AcDbVertex
100
AcDbPolyFaceMeshVertex
 10
-1.45873412489891
 20
-6.62499976158142
 30
7.437500238418578
 70
   192
  0
VERTEX
  5
11B
330
AB
100
AcDbEntity
  8
3D-P-SANR-FIXT
100
AcDbVertex
100
AcDbPolyFaceMeshVertex
 10
-1.396296322345733
 20
-6.62499976158142
 30
7.286762237548827
 70
   192
  0
VERTEX
  5
11C
330
AB
100
AcDbEntity
  8
3D-P-SANR-FIXT
100
AcDbFaceRecord
 10
0.0
 20
0.0
 30
0.0
 70
   128
 71
    -3
 72
    46
 73
   -47
  0
VERTEX
  5
11D
330
AB
100
AcDbEntity
  8
3D-P-SANR-FIXT
100
AcDbFaceRecord
 10
0.0
 20
0.0
 30
0.0
 70
   128
 71
   -46
 72
    -3
 73
    45
  0
VERTEX
  5
11E
330
AB
100
AcDbEntity
  8
3D-P-SANR-FIXT
100
AcDbFaceRecord
 10
0.0
 20
0.0
 30
0.0
 70
   128
 71
   -71
 72
    -3
 73
    47
 74
   -48
  0
VERTEX
  5
11F
330
AB
100
AcDbEntity
  8
3D-P-SANR-FIXT
100
AcDbFaceRecord
 10
0.0
 20
0.0
 30
0.0
 70
   128
 71
    43
 72
   -44
 73
    -3
  0
VERTEX
  5
120
330
AB
100
AcDbEntity
  8
3D-P-SANR-FIXT
100
AcDbFaceRecord
 10
0.0
 20
0.0
 30
0.0
 70
   128
 71
    44
 72
   -45
 73
    -3
  0
VERTEX
  5
121
330
AB
100
AcDbEntity
  8
3D-P-SANR-FIXT
100
AcDbFaceRecord
 10
0.0
 20
0.0
 30
0.0
 70
   128
 71
    -3
 72
    42
 73
   -43
  0
VERTEX
  5
122
330
AB
100
AcDbEntity
  8
3D-P-SANR-FIXT
100
AcDbFaceRecord
 10
0.0
 20
0.0
 30
0.0
 70
   128
 71
    70
 72
   -71
 73
    48
 74
   -49
  0
VERTEX
  5
123
330
AB
100
AcDbEntity
  8
3D-P-SANR-FIXT
100
AcDbFaceRecord
 10
0.0
 20
0.0
 30
0.0
 70
   128
 71
    69
 72
   -70
 73
    49
 74
   -50
  0
VERTEX
  5
124
330
AB
100
AcDbEntity
  8
3D-P-SANR-FIXT
100
AcDbFaceRecord
 10
0.0
 20
0.0
 30
0.0
 70
   128
 71
    50
 72
   -51
 73
    68
 74
   -69
  0
VERTEX
  5
125
330
AB
100
AcDbEntity
  8
3D-P-SANR-FIXT
100
AcDbFaceRecord
 10
0.0
 20
0.0
 30
0.0
 70
   128
 71
    67
 72
   -68
 73
    51
 74
   -52
  0
VERTEX
  5
126
330
AB
100
AcDbEntity
  8
3D-P-SANR-FIXT
100
AcDbFaceRecord
 10
0.0
 20
0.0
 30
0.0
 70
   128
 71
     2
 72
    -3
 73
   -71
 74
   -95
  0
VERTEX
  5
127
330
AB
100
AcDbEntity
  8
3D-P-SANR-FIXT
100
AcDbFaceRecord
 10
0.0
 20
0.0
 30
0.0
 70
   128
 71
    41
 72
   -42
 73
    -3
  0
VERTEX
  5
128
330
AB
100
AcDbEntity
  8
3D-P-SANR-FIXT
100
AcDbFaceRecord
 10
0.0
 20
0.0
 30
0.0
 70
   128
 71
    -4
 72
    63
 73
   -64
 74
     3
  0
VERTEX
  5
129
330
AB
100
AcDbEntity
  8
3D-P-SANR-FIXT
100
AcDbFaceRecord
 10
0.0
 20
0.0
 30
0.0
 70
   128
 71
    55
 72
   -56
 73
    87
 74
   -88
  0
VERTEX
  5
12A
330
AB
100
AcDbEntity
  8
3D-P-SANR-FIXT
100
AcDbFaceRecord
 10
0.0
 20
0.0
 30
0.0
 70
   128
 71
    62
 72
   -63
 73
    -4
 74
   -40
  0
VERTEX
  5
12B
330
AB
100
AcDbEntity
  8
3D-P-SANR-FIXT
100
AcDbFaceRecord
 10
0.0
 20
0.0
 30
0.0
 70
   128
 71
   -41
 72
    -3
 73
    64
  0
VERTEX
  5
12C
330
AB
100
AcDbEntity
  8
3D-P-SANR-FIXT
100
AcDbFaceRecord
 10
0.0
 20
0.0
 30
0.0
 70
   128
 71
    66
 72
   -67
 73
    52
 74
   -53
  0
VERTEX
  5
12D
330
AB
100
AcDbEntity
  8
3D-P-SANR-FIXT
100
AcDbFaceRecord
 10
0.0
 20
0.0
 30
0.0
 70
   128
 71
   -66
 72
   -53
 73
    65
  0
VERTEX
  5
12E
330
AB
100
AcDbEntity
  8
3D-P-SANR-FIXT
100
AcDbFaceRecord
 10
0.0
 20
0.0
 30
0.0
 70
   128
 71
   -54
 72
    88
 73
   -65
 74
    53
  0
VERTEX
  5
12F
330
AB
100
AcDbEntity
  8
3D-P-SANR-FIXT
100
AcDbFaceRecord
 10
0.0
 20
0.0
 30
0.0
 70
   128
 71
   -88
 72
    54
 73
   -55
  0
VERTEX
  5
130
330
AB
100
AcDbEntity
  8
3D-P-SANR-FIXT
100
AcDbFaceRecord
 10
0.0
 20
0.0
 30
0.0
 70
   128
 71
   -93
 72
    72
 73
   -73
 74
    92
  0
VERTEX
  5
131
330
AB
100
AcDbEntity
  8
3D-P-SANR-FIXT
100
AcDbFaceRecord
 10
0.0
 20
0.0
 30
0.0
 70
   128
 71
   -72
 72
    93
 73
   -94
  0
VERTEX
  5
132
330
AB
100
AcDbEntity
  8
3D-P-SANR-FIXT
100
AcDbFaceRecord
 10
0.0
 20
0.0
 30
0.0
 70
   128
 71
    74
 72
   -75
 73
    91
 74
   -92
  0
VERTEX
  5
133
330
AB
100
AcDbEntity
  8
3D-P-SANR-FIXT
100
AcDbFaceRecord
 10
0.0
 20
0.0
 30
0.0
 70
   128
 71
    90
 72
   -91
 73
    75
 74
   -76
  0
VERTEX
  5
134
330
AB
100
AcDbEntity
  8
3D-P-SANR-FIXT
100
AcDbFaceRecord
 10
0.0
 20
0.0
 30
0.0
 70
   128
 71
   -74
 72
   -92
 73
    73
  0
VERTEX
  5
135
330
AB
100
AcDbEntity
  8
3D-P-SANR-FIXT
100
AcDbFaceRecord
 10
0.0
 20
0.0
 30
0.0
 70
   128
 71
    -2
 72
    95
 73
   -96
  0
VERTEX
  5
136
330
AB
100
AcDbEntity
  8
3D-P-SANR-FIXT
100
AcDbFaceRecord
 10
0.0
 20
0.0
 30
0.0
 70
   128
 71
    -2
 72
    96
 73
   -97
  0
VERTEX
  5
137
330
AB
100
AcDbEntity
  8
3D-P-SANR-FIXT
100
AcDbFaceRecord
 10
0.0
 20
0.0
 30
0.0
 70
   128
 71
    98
 72
   -99
 73
    -2
  0
VERTEX
  5
138
330
AB
100
AcDbEntity
  8
3D-P-SANR-FIXT
100
AcDbFaceRecord
 10
0.0
 20
0.0
 30
0.0
 70
   128
 71
    97
 72
   -98
 73
    -2
  0
VERTEX
  5
139
330
AB
100
AcDbEntity
  8
3D-P-SANR-FIXT
100
AcDbFaceRecord
 10
0.0
 20
0.0
 30
0.0
 70
   128
 71
    94
 72
   -95
 73
    71
 74
   -72
  0
VERTEX
  5
13A
330
AB
100
AcDbEntity
  8
3D-P-SANR-FIXT
100
AcDbFaceRecord
 10
0.0
 20
0.0
 30
0.0
 70
   128
 71
    -2
 72
    99
 73
  -100
  0
VERTEX
  5
13B
330
AB
100
AcDbEntity
  8
3D-P-SANR-FIXT
100
AcDbFaceRecord
 10
0.0
 20
0.0
 30
0.0
 70
   128
 71
    89
 72
   -90
 73
    76
 74
   -77
  0
VERTEX
  5
13C
330
AB
100
AcDbEntity
  8
3D-P-SANR-FIXT
100
AcDbFaceRecord
 10
0.0
 20
0.0
 30
0.0
 70
   128
 71
   111
 72
  -112
 73
    78
 74
   -79
  0
VERTEX
  5
13D
330
AB
100
AcDbEntity
  8
3D-P-SANR-FIXT
100
AcDbFaceRecord
 10
0.0
 20
0.0
 30
0.0
 70
   128
 71
   112
 72
   -89
 73
    77
 74
   -78
  0
VERTEX
  5
13E
330
AB
100
AcDbEntity
  8
3D-P-SANR-FIXT
100
AcDbFaceRecord
 10
0.0
 20
0.0
 30
0.0
 70
   128
 71
    -2
 72
   101
 73
  -102
 74
     1
  0
VERTEX
  5
13F
330
AB
100
AcDbEntity
  8
3D-P-SANR-FIXT
100
AcDbFaceRecord
 10
0.0
 20
0.0
 30
0.0
 70
   128
 71
   100
 72
  -101
 73
    -2
  0
VERTEX
  5
140
330
AB
100
AcDbEntity
  8
3D-P-SANR-FIXT
100
AcDbFaceRecord
 10
0.0
 20
0.0
 30
0.0
 70
   128
 71
   110
 72
  -111
 73
    79
 74
   -80
  0
VERTEX
  5
141
330
AB
100
AcDbEntity
  8
3D-P-SANR-FIXT
100
AcDbFaceRecord
 10
0.0
 20
0.0
 30
0.0
 70
   128
 71
    -1
 72
   102
 73
  -103
  0
VERTEX
  5
142
330
AB
100
AcDbEntity
  8
3D-P-SANR-FIXT
100
AcDbFaceRecord
 10
0.0
 20
0.0
 30
0.0
 70
   128
 71
    -1
 72
   103
 73
  -104
 74
   -30
  0
VERTEX
  5
143
330
AB
100
AcDbEntity
  8
3D-P-SANR-FIXT
100
AcDbFaceRecord
 10
0.0
 20
0.0
 30
0.0
 70
   128
 71
   -86
 72
    56
 73
   -57
 74
    85
  0
VERTEX
  5
144
330
AB
100
AcDbEntity
  8
3D-P-SANR-FIXT
100
AcDbFaceRecord
 10
0.0
 20
0.0
 30
0.0
 70
   128
 71
   -19
 72
    59
 73
   -60
 74
    18
  0
VERTEX
  5
145
330
AB
100
AcDbEntity
  8
3D-P-SANR-FIXT
100
AcDbFaceRecord
 10
0.0
 20
0.0
 30
0.0
 70
   128
 71
   -21
 72
    57
 73
   -58
 74
    20
  0
VERTEX
  5
146
330
AB
100
AcDbEntity
  8
3D-P-SANR-FIXT
100
AcDbFaceRecord
 10
0.0
 20
0.0
 30
0.0
 70
   128
 71
   -20
 72
    58
 73
   -59
 74
    19
  0
VERTEX
  5
147
330
AB
100
AcDbEntity
  8
3D-P-SANR-FIXT
100
AcDbFaceRecord
 10
0.0
 20
0.0
 30
0.0
 70
   128
 71
   -18
 72
    60
 73
   -61
 74
    17
  0
VERTEX
  5
148
330
AB
100
AcDbEntity
  8
3D-P-SANR-FIXT
100
AcDbFaceRecord
 10
0.0
 20
0.0
 30
0.0
 70
   128
 71
   -22
 72
    84
 73
   -85
 74
    21
  0
VERTEX
  5
149
330
AB
100
AcDbEntity
  8
3D-P-SANR-FIXT
100
AcDbFaceRecord
 10
0.0
 20
0.0
 30
0.0
 70
   128
 71
   -85
 72
   -57
 73
   -21
  0
VERTEX
  5
14A
330
AB
100
AcDbEntity
  8
3D-P-SANR-FIXT
100
AcDbFaceRecord
 10
0.0
 20
0.0
 30
0.0
 70
   128
 71
   -84
 72
    22
 73
   -23
 74
    83
  0
VERTEX
  5
14B
330
AB
100
AcDbEntity
  8
3D-P-SANR-FIXT
100
AcDbFaceRecord
 10
0.0
 20
0.0
 30
0.0
 70
   128
 71
   -10
 72
     4
 73
     5
 74
    -6
  0
VERTEX
  5
14C
330
AB
100
AcDbEntity
  8
3D-P-SANR-FIXT
100
AcDbFaceRecord
 10
0.0
 20
0.0
 30
0.0
 70
   128
 71
     7
 72
     8
 73
    -9
  0
VERTEX
  5
14D
330
AB
100
AcDbEntity
  8
3D-P-SANR-FIXT
100
AcDbFaceRecord
 10
0.0
 20
0.0
 30
0.0
 70
   128
 71
     9
 72
   -10
 73
     6
 74
    -7
  0
VERTEX
  5
14E
330
AB
100
AcDbEntity
  8
3D-P-SANR-FIXT
100
AcDbFaceRecord
 10
0.0
 20
0.0
 30
0.0
 70
   128
 71
    -4
 72
   -10
 73
    37
 74
   -38
  0
VERTEX
  5
14F
330
AB
100
AcDbEntity
  8
3D-P-SANR-FIXT
100
AcDbFaceRecord
 10
0.0
 20
0.0
 30
0.0
 70
   128
 71
   -17
 72
    61
 73
   -62
 74
    40
  0
VERTEX
  5
150
330
AB
100
AcDbEntity
  8
3D-P-SANR-FIXT
100
AcDbFaceRecord
 10
0.0
 20
0.0
 30
0.0
 70
   128
 71
    39
 72
   -40
 73
    -4
  0
VERTEX
  5
151
330
AB
100
AcDbEntity
  8
3D-P-SANR-FIXT
100
AcDbFaceRecord
 10
0.0
 20
0.0
 30
0.0
 70
   128
 71
    35
 72
   -36
 73
    10
 74
   -11
  0
VERTEX
  5
152
330
AB
100
AcDbEntity
  8
3D-P-SANR-FIXT
100
AcDbFaceRecord
 10
0.0
 20
0.0
 30
0.0
 70
   128
 71
   -37
 72
   -10
 73
    36
  0
VERTEX
  5
153
330
AB
100
AcDbEntity
  8
3D-P-SANR-FIXT
100
AcDbFaceRecord
 10
0.0
 20
0.0
 30
0.0
 70
   128
 71
   -39
 72
    -4
 73
    38
  0
VERTEX
  5
154
330
AB
100
AcDbEntity
  8
3D-P-SANR-FIXT
100
AcDbFaceRecord
 10
0.0
 20
0.0
 30
0.0
 70
   128
 71
   -24
 72
    81
 73
   -82
 74
    23
  0
VERTEX
  5
155
330
AB
100
AcDbEntity
  8
3D-P-SANR-FIXT
100
AcDbFaceRecord
 10
0.0
 20
0.0
 30
0.0
 70
   128
 71
  -109
 72
    80
 73
   -81
 74
   -25
  0
VERTEX
  5
156
330
AB
100
AcDbEntity
  8
3D-P-SANR-FIXT
100
AcDbFaceRecord
 10
0.0
 20
0.0
 30
0.0
 70
   128
 71
   -25
 72
   -81
 73
    24
  0
VERTEX
  5
157
330
AB
100
AcDbEntity
  8
3D-P-SANR-FIXT
100
AcDbFaceRecord
 10
0.0
 20
0.0
 30
0.0
 70
   128
 71
    82
 72
   -83
 73
   -23
  0
VERTEX
  5
158
330
AB
100
AcDbEntity
  8
3D-P-SANR-FIXT
100
AcDbFaceRecord
 10
0.0
 20
0.0
 30
0.0
 70
   128
 71
   -28
 72
   105
 73
  -106
 74
    27
  0
VERTEX
  5
159
330
AB
100
AcDbEntity
  8
3D-P-SANR-FIXT
100
AcDbFaceRecord
 10
0.0
 20
0.0
 30
0.0
 70
   128
 71
    26
 72
   -27
 73
   107
 74
  -108
  0
VERTEX
  5
15A
330
AB
100
AcDbEntity
  8
3D-P-SANR-FIXT
100
AcDbFaceRecord
 10
0.0
 20
0.0
 30
0.0
 70
   128
 71
   -27
 72
   106
 73
  -107
  0
VERTEX
  5
15B
330
AB
100
AcDbEntity
  8
3D-P-SANR-FIXT
100
AcDbFaceRecord
 10
0.0
 20
0.0
 30
0.0
 70
   128
 71
   108
 72
  -109
 73
    25
 74
   -26
  0
VERTEX
  5
15C
330
AB
100
AcDbEntity
  8
3D-P-SANR-FIXT
100
AcDbFaceRecord
 10
0.0
 20
0.0
 30
0.0
 70
   128
 71
   109
 72
  -110
 73
   -80
  0
VERTEX
  5
15D
330
AB
100
AcDbEntity
  8
3D-P-SANR-FIXT
100
AcDbFaceRecord
 10
0.0
 20
0.0
 30
0.0
 70
   128
 71
    29
 72
   -30
 73
   104
 74
  -105
  0
VERTEX
  5
15E
330
AB
100
AcDbEntity
  8
3D-P-SANR-FIXT
100
AcDbFaceRecord
 10
0.0
 20
0.0
 30
0.0
 70
   128
 71
    33
 72
   -34
 73
   -11
  0
VERTEX
  5
15F
330
AB
100
AcDbEntity
  8
3D-P-SANR-FIXT
100
AcDbFaceRecord
 10
0.0
 20
0.0
 30
0.0
 70
   128
 71
    31
 72
   -32
 73
    -1
  0
VERTEX
  5
160
330
AB
100
AcDbEntity
  8
3D-P-SANR-FIXT
100
AcDbFaceRecord
 10
0.0
 20
0.0
 30
0.0
 70
   128
 71
    -1
 72
    32
 73
   -33
 74
   -11
  0
VERTEX
  5
161
330
AB
100
AcDbEntity
  8
3D-P-SANR-FIXT
100
AcDbFaceRecord
 10
0.0
 20
0.0
 30
0.0
 70
   128
 71
    30
 72
   -31
 73
    -1
  0
VERTEX
  5
162
330
AB
100
AcDbEntity
  8
3D-P-SANR-FIXT
100
AcDbFaceRecord
 10
0.0
 20
0.0
 30
0.0
 70
   128
 71
   -11
 72
    15
 73
    16
 74
    -1
  0
VERTEX
  5
163
330
AB
100
AcDbEntity
  8
3D-P-SANR-FIXT
100
AcDbFaceRecord
 10
0.0
 20
0.0
 30
0.0
 70
   128
 71
    14
 72
   -15
 73
    12
 74
    13
  0
VERTEX
  5
164
330
AB
100
AcDbEntity
  8
3D-P-SANR-FIXT
100
AcDbFaceRecord
 10
0.0
 20
0.0
 30
0.0
 70
   128
 71
   -12
 72
   -15
 73
    11
  0
VERTEX
  5
165
330
AB
100
AcDbEntity
  8
3D-P-SANR-FIXT
100
AcDbFaceRecord
 10
0.0
 20
0.0
 30
0.0
 70
   128
 71
    34
 72
   -35
 73
   -11
  0
VERTEX
  5
166
330
AB
100
AcDbEntity
  8
3D-P-SANR-FIXT
100
AcDbFaceRecord
 10
0.0
 20
0.0
 30
0.0
 70
   128
 71
   -29
 72
  -105
 73
    28
  0
VERTEX
  5
167
330
AB
100
AcDbEntity
  8
3D-P-SANR-FIXT
100
AcDbFaceRecord
 10
0.0
 20
0.0
 30
0.0
 70
   128
 71
    86
 72
   -87
 73
   -56
  0
SEQEND
  5
168
330
AB
100
AcDbEntity
  8
3D-P-SANR-FIXT
  0
POLYLINE
  5
169
330
AA
100
AcDbEntity
  8
3D-P-SANR-FIXT
100
AcDbPolyFaceMesh
 66
     1
 10
0.0
 20
0.0
 30
0.0
 70
    64
 71
   125
 72
    89
1001
REVIT
1002
{
1070
     4
1000
6241
1002
}
1002
{
1070
     2
1000
-2001160
1002
}
  0
VERTEX
  5
16A
330
169
100
AcDbEntity
  8
3D-P-SANR-FIXT
100
AcDbVertex
100
AcDbPolyFaceMeshVertex
 10
-9.999999761581419
 20
-0.0000000000009912
 30
24.0
 70
   192
  0
VERTEX
  5
16B
330
169
100
AcDbEntity
  8
3D-P-SANR-FIXT
100
AcDbVertex
100
AcDbPolyFaceMeshVertex
 10
-9.897777557373045
 20
-0.0000000000009912
 30
24.77645587921142
 70
   192
  0
VERTEX
  5
16C
330
169
100
AcDbEntity
  8
3D-P-SANR-FIXT
100
AcDbVertex
100
AcDbPolyFaceMeshVertex
 10
-9.598076105117796
 20
-0.0000000000009912
 30
25.5
 70
   192
  0
VERTEX
  5
16D
330
169
100
AcDbEntity
  8
3D-P-SANR-FIXT
100
AcDbVertex
100
AcDbPolyFaceMeshVertex
 10
-9.121320247650144
 20
-0.0000000000009912
 30
26.12131977081299
 70
   192
  0
VERTEX
  5
16E
330
169
100
AcDbEntity
  8
3D-P-SANR-FIXT
100
AcDbVertex
100
AcDbPolyFaceMeshVertex
 10
-8.499999761581419
 20
-0.0000000000009912
 30
26.5980749130249
 70
   192
  0
VERTEX
  5
16F
330
169
100
AcDbEntity
  8
3D-P-SANR-FIXT
100
AcDbVertex
100
AcDbPolyFaceMeshVertex
 10
-7.77645707130432
 20
-0.0000000000009912
 30
26.89777851104736
 70
   192
  0
VERTEX
  5
170
330
169
100
AcDbEntity
  8
3D-P-SANR-FIXT
100
AcDbVertex
100
AcDbPolyFaceMeshVertex
 10
-6.99999976158142
 20
-0.0000000000009912
 30
27.0
 70
   192
  0
VERTEX
  5
171
330
169
100
AcDbEntity
  8
3D-P-SANR-FIXT
100
AcDbVertex
100
AcDbPolyFaceMeshVertex
 10
6.99999976158142
 20
-0.0000000000009912
 30
27.0
 70
   192
  0
VERTEX
  5
172
330
169
100
AcDbEntity
  8
3D-P-SANR-FIXT
100
AcDbVertex
100
AcDbPolyFaceMeshVertex
 10
7.77645707130432
 20
-0.0000000000009912
 30
26.89777851104736
 70
   192
  0
VERTEX
  5
173
330
169
100
AcDbEntity
  8
3D-P-SANR-FIXT
100
AcDbVertex
100
AcDbPolyFaceMeshVertex
 10
8.499999761581419
 20
-0.0000000000009912
 30
26.5980749130249
 70
   192
  0
VERTEX
  5
174
330
169
100
AcDbEntity
  8
3D-P-SANR-FIXT
100
AcDbVertex
100
AcDbPolyFaceMeshVertex
 10
9.121320247650144
 20
-0.0000000000009912
 30
26.12131977081299
 70
   192
  0
VERTEX
  5
175
330
169
100
AcDbEntity
  8
3D-P-SANR-FIXT
100
AcDbVertex
100
AcDbPolyFaceMeshVertex
 10
9.598076105117796
 20
-0.0000000000009912
 30
25.5
 70
   192
  0
VERTEX
  5
176
330
169
100
AcDbEntity
  8
3D-P-SANR-FIXT
100
AcDbVertex
100
AcDbPolyFaceMeshVertex
 10
9.897777557373045
 20
-0.0000000000009912
 30
24.77645587921142
 70
   192
  0
VERTEX
  5
177
330
169
100
AcDbEntity
  8
3D-P-SANR-FIXT
100
AcDbVertex
100
AcDbPolyFaceMeshVertex
 10
9.999999761581419
 20
-0.0000000000009912
 30
24.0
 70
   192
  0
VERTEX
  5
178
330
169
100
AcDbEntity
  8
3D-P-SANR-FIXT
100
AcDbVertex
100
AcDbPolyFaceMeshVertex
 10
9.999999761581419
 20
-0.0000000000009912
 30
-0.0000000000000746
 70
   192
  0
VERTEX
  5
179
330
169
100
AcDbEntity
  8
3D-P-SANR-FIXT
100
AcDbVertex
100
AcDbPolyFaceMeshVertex
 10
-9.999999761581419
 20
-0.0000000000009912
 30
-0.000000000000008
 70
   192
  0
VERTEX
  5
17A
330
169
100
AcDbEntity
  8
3D-P-SANR-FIXT
100
AcDbVertex
100
AcDbPolyFaceMeshVertex
 10
-6.728691101074217
 20
-0.0000000000009912
 30
24.0
 70
   192
  0
VERTEX
  5
17B
330
169
100
AcDbEntity
  8
3D-P-SANR-FIXT
100
AcDbVertex
100
AcDbPolyFaceMeshVertex
 10
-7.022171974182128
 20
-0.0000000000009912
 30
23.940194606781
 70
   192
  0
VERTEX
  5
17C
330
169
100
AcDbEntity
  8
3D-P-SANR-FIXT
100
AcDbVertex
100
AcDbPolyFaceMeshVertex
 10
-7.268850088119505
 20
-0.0000000000009912
 30
23.77031564712524
 70
   192
  0
VERTEX
  5
17D
330
169
100
AcDbEntity
  8
3D-P-SANR-FIXT
100
AcDbVertex
100
AcDbPolyFaceMeshVertex
 10
-7.429381370544432
 20
-0.0000000000009912
 30
23.51745700836181
 70
   192
  0
VERTEX
  5
17E
330
169
100
AcDbEntity
  8
3D-P-SANR-FIXT
100
AcDbVertex
100
AcDbPolyFaceMeshVertex
 10
-7.478153228759764
 20
-0.0000000000009912
 30
23.2216157913208
 70
   192
  0
VERTEX
  5
17F
330
169
100
AcDbEntity
  8
3D-P-SANR-FIXT
100
AcDbVertex
100
AcDbPolyFaceMeshVertex
 10
-7.347665548324584
 20
-0.0000000000009912
 30
21.1745982170105
 70
   192
  0
VERTEX
  5
180
330
169
100
AcDbEntity
  8
3D-P-SANR-FIXT
100
AcDbVertex
100
AcDbPolyFaceMeshVertex
 10
-7.11175489425659
 20
-0.0000000000009912
 30
19.137056350708
 70
   192
  0
VERTEX
  5
181
330
169
100
AcDbEntity
  8
3D-P-SANR-FIXT
100
AcDbVertex
100
AcDbPolyFaceMeshVertex
 10
-6.771052122116087
 20
-0.0000000000009912
 30
17.11441326141357
 70
   192
  0
VERTEX
  5
182
330
169
100
AcDbEntity
  8
3D-P-SANR-FIXT
100
AcDbVertex
100
AcDbPolyFaceMeshVertex
 10
-6.326465606689452
 20
-0.0000000000009912
 30
15.11205053329467
 70
   192
  0
VERTEX
  5
183
330
169
100
AcDbEntity
  8
3D-P-SANR-FIXT
100
AcDbVertex
100
AcDbPolyFaceMeshVertex
 10
-5.779220938682555
 20
-0.0000000000009912
 30
13.1354284286499
 70
   192
  0
VERTEX
  5
184
330
169
100
AcDbEntity
  8
3D-P-SANR-FIXT
100
AcDbVertex
100
AcDbPolyFaceMeshVertex
 10
-5.472589373588561
 20
-0.0000000000009912
 30
12.33712005615234
 70
   192
  0
VERTEX
  5
185
330
169
100
AcDbEntity
  8
3D-P-SANR-FIXT
100
AcDbVertex
100
AcDbPolyFaceMeshVertex
 10
-5.056318759918212
 20
-0.0000000000009912
 30
11.5901026725769
 70
   192
  0
VERTEX
  5
186
330
169
100
AcDbEntity
  8
3D-P-SANR-FIXT
100
AcDbVertex
100
AcDbPolyFaceMeshVertex
 10
-4.538749694824217
 20
-0.0000000000009912
 30
10.9093415737152
 70
   192
  0
VERTEX
  5
187
330
169
100
AcDbEntity
  8
3D-P-SANR-FIXT
100
AcDbVertex
100
AcDbPolyFaceMeshVertex
 10
-3.930251598358153
 20
-0.0000000000009912
 30
10.30847525596618
 70
   192
  0
VERTEX
  5
188
330
169
100
AcDbEntity
  8
3D-P-SANR-FIXT
100
AcDbVertex
100
AcDbPolyFaceMeshVertex
 10
-3.24301528930664
 20
-0.0000000000009912
 30
9.79954147338867
 70
   192
  0
VERTEX
  5
189
330
169
100
AcDbEntity
  8
3D-P-SANR-FIXT
100
AcDbVertex
100
AcDbPolyFaceMeshVertex
 10
-2.490809977054595
 20
-0.0000000000009912
 30
9.39273405075073
 70
   192
  0
VERTEX
  5
18A
330
169
100
AcDbEntity
  8
3D-P-SANR-FIXT
100
AcDbVertex
100
AcDbPolyFaceMeshVertex
 10
-1.688705027103423
 20
-0.0000000000009912
 30
9.09620404243469
 70
   192
  0
VERTEX
  5
18B
330
169
100
AcDbEntity
  8
3D-P-SANR-FIXT
100
AcDbVertex
100
AcDbPolyFaceMeshVertex
 10
-0.8527702689170835
 20
-0.0000000000009912
 30
8.91589021682739
 70
   192
  0
VERTEX
  5
18C
330
169
100
AcDbEntity
  8
3D-P-SANR-FIXT
100
AcDbVertex
100
AcDbPolyFaceMeshVertex
 10
0.0002474367502145
 20
-0.0000000000009912
 30
8.855405330657957
 70
   192
  0
VERTEX
  5
18D
330
169
100
AcDbEntity
  8
3D-P-SANR-FIXT
100
AcDbVertex
100
AcDbPolyFaceMeshVertex
 10
0.8532588779926298
 20
-0.0000000000009912
 30
8.915959596633909
 70
   192
  0
VERTEX
  5
18E
330
169
100
AcDbEntity
  8
3D-P-SANR-FIXT
100
AcDbVertex
100
AcDbPolyFaceMeshVertex
 10
1.689175128936767
 20
-0.0000000000009912
 30
9.096340656280515
 70
   192
  0
VERTEX
  5
18F
330
169
100
AcDbEntity
  8
3D-P-SANR-FIXT
100
AcDbVertex
100
AcDbPolyFaceMeshVertex
 10
2.491249859333037
 20
-0.0000000000009912
 30
9.392932891845701
 70
   192
  0
VERTEX
  5
190
330
169
100
AcDbEntity
  8
3D-P-SANR-FIXT
100
AcDbVertex
100
AcDbPolyFaceMeshVertex
 10
3.243414759635924
 20
-0.0000000000009912
 30
9.799795389175413
 70
   192
  0
VERTEX
  5
191
330
169
100
AcDbEntity
  8
3D-P-SANR-FIXT
100
AcDbVertex
100
AcDbPolyFaceMeshVertex
 10
3.930602073669433
 20
-0.0000000000009912
 30
10.30877566337585
 70
   192
  0
VERTEX
  5
192
330
169
100
AcDbEntity
  8
3D-P-SANR-FIXT
100
AcDbVertex
100
AcDbPolyFaceMeshVertex
 10
4.539044380187987
 20
-0.0000000000009912
 30
10.90967774391174
 70
   192
  0
VERTEX
  5
193
330
169
100
AcDbEntity
  8
3D-P-SANR-FIXT
100
AcDbVertex
100
AcDbPolyFaceMeshVertex
 10
5.056553721427916
 20
-0.0000000000009912
 30
11.59046173095703
 70
   192
  0
VERTEX
  5
194
330
169
100
AcDbEntity
  8
3D-P-SANR-FIXT
100
AcDbVertex
100
AcDbPolyFaceMeshVertex
 10
5.472762823104857
 20
-0.0000000000009912
 30
12.33749055862426
 70
   192
  0
VERTEX
  5
195
330
169
100
AcDbEntity
  8
3D-P-SANR-FIXT
100
AcDbVertex
100
AcDbPolyFaceMeshVertex
 10
5.779220938682555
 20
-0.0000000000009912
 30
13.1354284286499
 70
   192
  0
VERTEX
  5
196
330
169
100
AcDbEntity
  8
3D-P-SANR-FIXT
100
AcDbVertex
100
AcDbPolyFaceMeshVertex
 10
6.326512813568114
 20
-0.0000000000009912
 30
15.11223936080932
 70
   192
  0
VERTEX
  5
197
330
169
100
AcDbEntity
  8
3D-P-SANR-FIXT
100
AcDbVertex
100
AcDbPolyFaceMeshVertex
 10
6.771094322204588
 20
-0.0000000000009912
 30
17.11463212966918
 70
   192
  0
VERTEX
  5
198
330
169
100
AcDbEntity
  8
3D-P-SANR-FIXT
100
AcDbVertex
100
AcDbPolyFaceMeshVertex
 10
7.111786365509032
 20
-0.0000000000009912
 30
19.13727664947509
 70
   192
  0
VERTEX
  5
199
330
169
100
AcDbEntity
  8
3D-P-SANR-FIXT
100
AcDbVertex
100
AcDbPolyFaceMeshVertex
 10
7.347682714462279
 20
-0.0000000000009912
 30
21.17479133605957
 70
   192
  0
VERTEX
  5
19A
330
169
100
AcDbEntity
  8
3D-P-SANR-FIXT
100
AcDbVertex
100
AcDbPolyFaceMeshVertex
 10
7.478153228759764
 20
-0.0000000000009912
 30
23.2216157913208
 70
   192
  0
VERTEX
  5
19B
330
169
100
AcDbEntity
  8
3D-P-SANR-FIXT
100
AcDbVertex
100
AcDbPolyFaceMeshVertex
 10
7.429497957229613
 20
-0.0000000000009912
 30
23.51714944839477
 70
   192
  0
VERTEX
  5
19C
330
169
100
AcDbEntity
  8
3D-P-SANR-FIXT
100
AcDbVertex
100
AcDbPolyFaceMeshVertex
 10
7.269076108932494
 20
-0.0000000000009912
 30
23.77008104324341
 70
   192
  0
VERTEX
  5
19D
330
169
100
AcDbEntity
  8
3D-P-SANR-FIXT
100
AcDbVertex
100
AcDbPolyFaceMeshVertex
 10
7.02247381210327
 20
-0.0000000000009912
 30
23.94006586074829
 70
   192
  0
VERTEX
  5
19E
330
169
100
AcDbEntity
  8
3D-P-SANR-FIXT
100
AcDbVertex
100
AcDbPolyFaceMeshVertex
 10
6.728691101074217
 20
-0.0000000000009912
 30
24.0
 70
   192
  0
VERTEX
  5
19F
330
169
100
AcDbEntity
  8
3D-P-SANR-FIXT
100
AcDbVertex
100
AcDbPolyFaceMeshVertex
 10
1.375000029802322
 20
-0.0000000000009912
 30
7.124999999999999
 70
   192
  0
VERTEX
  5
1A0
330
169
100
AcDbEntity
  8
3D-P-SANR-FIXT
100
AcDbVertex
100
AcDbPolyFaceMeshVertex
 10
1.396296322345733
 20
-0.0000000000009912
 30
6.96323776245117
 70
   192
  0
VERTEX
  5
1A1
330
169
100
AcDbEntity
  8
3D-P-SANR-FIXT
100
AcDbVertex
100
AcDbPolyFaceMeshVertex
 10
1.45873412489891
 20
-0.0000000000009912
 30
6.81249976158142
 70
   192
  0
VERTEX
  5
1A2
330
169
100
AcDbEntity
  8
3D-P-SANR-FIXT
100
AcDbVertex
100
AcDbPolyFaceMeshVertex
 10
1.558058202266692
 20
-0.0000000000009912
 30
6.683058500289916
 70
   192
  0
VERTEX
  5
1A3
330
169
100
AcDbEntity
  8
3D-P-SANR-FIXT
100
AcDbVertex
100
AcDbPolyFaceMeshVertex
 10
1.687499999999999
 20
-0.0000000000009912
 30
6.583733797073363
 70
   192
  0
VERTEX
  5
1A4
330
169
100
AcDbEntity
  8
3D-P-SANR-FIXT
100
AcDbVertex
100
AcDbPolyFaceMeshVertex
 10
1.838238179683685
 20
-0.0000000000009912
 30
6.521296262741087
 70
   192
  0
VERTEX
  5
1A5
330
169
100
AcDbEntity
  8
3D-P-SANR-FIXT
100
AcDbVertex
100
AcDbPolyFaceMeshVertex
 10
2.000000059604644
 20
-0.0000000000009912
 30
6.500000238418578
 70
   192
  0
VERTEX
  5
1A6
330
169
100
AcDbEntity
  8
3D-P-SANR-FIXT
100
AcDbVertex
100
AcDbPolyFaceMeshVertex
 10
2.161761939525603
 20
-0.0000000000009912
 30
6.521296262741087
 70
   192
  0
VERTEX
  5
1A7
330
169
100
AcDbEntity
  8
3D-P-SANR-FIXT
100
AcDbVertex
100
AcDbPolyFaceMeshVertex
 10
2.312499940395354
 20
-0.0000000000009912
 30
6.583733797073363
 70
   192
  0
VERTEX
  5
1A8
330
169
100
AcDbEntity
  8
3D-P-SANR-FIXT
100
AcDbVertex
100
AcDbPolyFaceMeshVertex
 10
2.441941738128661
 20
-0.0000000000009912
 30
6.683058500289916
 70
   192
  0
VERTEX
  5
1A9
330
169
100
AcDbEntity
  8
3D-P-SANR-FIXT
100
AcDbVertex
100
AcDbPolyFaceMeshVertex
 10
2.541265904903411
 20
-0.0000000000009912
 30
6.81249976158142
 70
   192
  0
VERTEX
  5
1AA
330
169
100
AcDbEntity
  8
3D-P-SANR-FIXT
100
AcDbVertex
100
AcDbPolyFaceMeshVertex
 10
2.603703618049621
 20
-0.0000000000009912
 30
6.96323776245117
 70
   192
  0
VERTEX
  5
1AB
330
169
100
AcDbEntity
  8
3D-P-SANR-FIXT
100
AcDbVertex
100
AcDbPolyFaceMeshVertex
 10
2.624999999999999
 20
-0.0000000000009912
 30
7.124999999999999
 70
   192
  0
VERTEX
  5
1AC
330
169
100
AcDbEntity
  8
3D-P-SANR-FIXT
100
AcDbVertex
100
AcDbPolyFaceMeshVertex
 10
2.603703618049621
 20
-0.0000000000009912
 30
7.286762237548827
 70
   192
  0
VERTEX
  5
1AD
330
169
100
AcDbEntity
  8
3D-P-SANR-FIXT
100
AcDbVertex
100
AcDbPolyFaceMeshVertex
 10
2.541265904903411
 20
-0.0000000000009912
 30
7.437500238418578
 70
   192
  0
VERTEX
  5
1AE
330
169
100
AcDbEntity
  8
3D-P-SANR-FIXT
100
AcDbVertex
100
AcDbPolyFaceMeshVertex
 10
2.441941738128661
 20
-0.0000000000009912
 30
7.566941499710082
 70
   192
  0
VERTEX
  5
1AF
330
169
100
AcDbEntity
  8
3D-P-SANR-FIXT
100
AcDbVertex
100
AcDbPolyFaceMeshVertex
 10
2.312499940395354
 20
-0.0000000000009912
 30
7.666266202926634
 70
   192
  0
VERTEX
  5
1B0
330
169
100
AcDbEntity
  8
3D-P-SANR-FIXT
100
AcDbVertex
100
AcDbPolyFaceMeshVertex
 10
2.161761939525603
 20
-0.0000000000009912
 30
7.72870373725891
 70
   192
  0
VERTEX
  5
1B1
330
169
100
AcDbEntity
  8
3D-P-SANR-FIXT
100
AcDbVertex
100
AcDbPolyFaceMeshVertex
 10
2.000000059604644
 20
-0.0000000000009912
 30
7.74999976158142
 70
   192
  0
VERTEX
  5
1B2
330
169
100
AcDbEntity
  8
3D-P-SANR-FIXT
100
AcDbVertex
100
AcDbPolyFaceMeshVertex
 10
1.838238179683685
 20
-0.0000000000009912
 30
7.72870373725891
 70
   192
  0
VERTEX
  5
1B3
330
169
100
AcDbEntity
  8
3D-P-SANR-FIXT
100
AcDbVertex
100
AcDbPolyFaceMeshVertex
 10
1.687499999999999
 20
-0.0000000000009912
 30
7.666266202926634
 70
   192
  0
VERTEX
  5
1B4
330
169
100
AcDbEntity
  8
3D-P-SANR-FIXT
100
AcDbVertex
100
AcDbPolyFaceMeshVertex
 10
1.558058202266692
 20
-0.0000000000009912
 30
7.566941499710082
 70
   192
  0
VERTEX
  5
1B5
330
169
100
AcDbEntity
  8
3D-P-SANR-FIXT
100
AcDbVertex
100
AcDbPolyFaceMeshVertex
 10
1.45873412489891
 20
-0.0000000000009912
 30
7.437500238418578
 70
   192
  0
VERTEX
  5
1B6
330
169
100
AcDbEntity
  8
3D-P-SANR-FIXT
100
AcDbVertex
100
AcDbPolyFaceMeshVertex
 10
1.396296322345733
 20
-0.0000000000009912
 30
7.286762237548827
 70
   192
  0
VERTEX
  5
1B7
330
169
100
AcDbEntity
  8
3D-P-SANR-FIXT
100
AcDbVertex
100
AcDbPolyFaceMeshVertex
 10
-0.6249999850988388
 20
-0.0000000000009912
 30
7.124999999999999
 70
   192
  0
VERTEX
  5
1B8
330
169
100
AcDbEntity
  8
3D-P-SANR-FIXT
100
AcDbVertex
100
AcDbPolyFaceMeshVertex
 10
-0.6037036478519439
 20
-0.0000000000009912
 30
6.96323776245117
 70
   192
  0
VERTEX
  5
1B9
330
169
100
AcDbEntity
  8
3D-P-SANR-FIXT
100
AcDbVertex
100
AcDbPolyFaceMeshVertex
 10
-0.5412658900022506
 20
-0.0000000000009912
 30
6.81249976158142
 70
   192
  0
VERTEX
  5
1BA
330
169
100
AcDbEntity
  8
3D-P-SANR-FIXT
100
AcDbVertex
100
AcDbPolyFaceMeshVertex
 10
-0.4419417232275009
 20
-0.0000000000009912
 30
6.683058500289916
 70
   192
  0
VERTEX
  5
1BB
330
169
100
AcDbEntity
  8
3D-P-SANR-FIXT
100
AcDbVertex
100
AcDbPolyFaceMeshVertex
 10
-0.3124999925494194
 20
-0.0000000000009912
 30
6.583733797073363
 70
   192
  0
VERTEX
  5
1BC
330
169
100
AcDbEntity
  8
3D-P-SANR-FIXT
100
AcDbVertex
100
AcDbPolyFaceMeshVertex
 10
-0.1617619022727012
 20
-0.0000000000009912
 30
6.521296262741087
 70
   192
  0
VERTEX
  5
1BD
330
169
100
AcDbEntity
  8
3D-P-SANR-FIXT
100
AcDbVertex
100
AcDbPolyFaceMeshVertex
 10
0.000000000000323
 20
-0.0000000000009912
 30
6.500000238418578
 70
   192
  0
VERTEX
  5
1BE
330
169
100
AcDbEntity
  8
3D-P-SANR-FIXT
100
AcDbVertex
100
AcDbPolyFaceMeshVertex
 10
0.1617619022727012
 20
-0.0000000000009912
 30
6.521296262741087
 70
   192
  0
VERTEX
  5
1BF
330
169
100
AcDbEntity
  8
3D-P-SANR-FIXT
100
AcDbVertex
100
AcDbPolyFaceMeshVertex
 10
0.3124999925494194
 20
-0.0000000000009912
 30
6.583733797073363
 70
   192
  0
VERTEX
  5
1C0
330
169
100
AcDbEntity
  8
3D-P-SANR-FIXT
100
AcDbVertex
100
AcDbPolyFaceMeshVertex
 10
0.4419417232275009
 20
-0.0000000000009912
 30
6.683058500289916
 70
   192
  0
VERTEX
  5
1C1
330
169
100
AcDbEntity
  8
3D-P-SANR-FIXT
100
AcDbVertex
100
AcDbPolyFaceMeshVertex
 10
0.5412658900022506
 20
-0.0000000000009912
 30
6.81249976158142
 70
   192
  0
VERTEX
  5
1C2
330
169
100
AcDbEntity
  8
3D-P-SANR-FIXT
100
AcDbVertex
100
AcDbPolyFaceMeshVertex
 10
0.6037036478519439
 20
-0.0000000000009912
 30
6.96323776245117
 70
   192
  0
VERTEX
  5
1C3
330
169
100
AcDbEntity
  8
3D-P-SANR-FIXT
100
AcDbVertex
100
AcDbPolyFaceMeshVertex
 10
0.6249999850988388
 20
-0.0000000000009912
 30
7.124999999999999
 70
   192
  0
VERTEX
  5
1C4
330
169
100
AcDbEntity
  8
3D-P-SANR-FIXT
100
AcDbVertex
100
AcDbPolyFaceMeshVertex
 10
0.6037036478519439
 20
-0.0000000000009912
 30
7.286762237548827
 70
   192
  0
VERTEX
  5
1C5
330
169
100
AcDbEntity
  8
3D-P-SANR-FIXT
100
AcDbVertex
100
AcDbPolyFaceMeshVertex
 10
0.5412658900022506
 20
-0.0000000000009912
 30
7.437500238418578
 70
   192
  0
VERTEX
  5
1C6
330
169
100
AcDbEntity
  8
3D-P-SANR-FIXT
100
AcDbVertex
100
AcDbPolyFaceMeshVertex
 10
0.4419417232275009
 20
-0.0000000000009912
 30
7.566941499710082
 70
   192
  0
VERTEX
  5
1C7
330
169
100
AcDbEntity
  8
3D-P-SANR-FIXT
100
AcDbVertex
100
AcDbPolyFaceMeshVertex
 10
0.3124999925494194
 20
-0.0000000000009912
 30
7.666266202926634
 70
   192
  0
VERTEX
  5
1C8
330
169
100
AcDbEntity
  8
3D-P-SANR-FIXT
100
AcDbVertex
100
AcDbPolyFaceMeshVertex
 10
0.1617619022727012
 20
-0.0000000000009912
 30
7.72870373725891
 70
   192
  0
VERTEX
  5
1C9
330
169
100
AcDbEntity
  8
3D-P-SANR-FIXT
100
AcDbVertex
100
AcDbPolyFaceMeshVertex
 10
0.0000000000003235
 20
-0.0000000000009912
 30
7.74999976158142
 70
   192
  0
VERTEX
  5
1CA
330
169
100
AcDbEntity
  8
3D-P-SANR-FIXT
100
AcDbVertex
100
AcDbPolyFaceMeshVertex
 10
-0.1617619022727012
 20
-0.0000000000009912
 30
7.72870373725891
 70
   192
  0
VERTEX
  5
1CB
330
169
100
AcDbEntity
  8
3D-P-SANR-FIXT
100
AcDbVertex
100
AcDbPolyFaceMeshVertex
 10
-0.3124999925494194
 20
-0.0000000000009912
 30
7.666266202926634
 70
   192
  0
VERTEX
  5
1CC
330
169
100
AcDbEntity
  8
3D-P-SANR-FIXT
100
AcDbVertex
100
AcDbPolyFaceMeshVertex
 10
-0.4419417232275009
 20
-0.0000000000009912
 30
7.566941499710082
 70
   192
  0
VERTEX
  5
1CD
330
169
100
AcDbEntity
  8
3D-P-SANR-FIXT
100
AcDbVertex
100
AcDbPolyFaceMeshVertex
 10
-0.5412658900022506
 20
-0.0000000000009912
 30
7.437500238418578
 70
   192
  0
VERTEX
  5
1CE
330
169
100
AcDbEntity
  8
3D-P-SANR-FIXT
100
AcDbVertex
100
AcDbPolyFaceMeshVertex
 10
-0.6037036478519439
 20
-0.0000000000009912
 30
7.286762237548827
 70
   192
  0
VERTEX
  5
1CF
330
169
100
AcDbEntity
  8
3D-P-SANR-FIXT
100
AcDbVertex
100
AcDbPolyFaceMeshVertex
 10
-2.624999999999999
 20
-0.0000000000009912
 30
7.124999999999999
 70
   192
  0
VERTEX
  5
1D0
330
169
100
AcDbEntity
  8
3D-P-SANR-FIXT
100
AcDbVertex
100
AcDbPolyFaceMeshVertex
 10
-2.603703618049621
 20
-0.0000000000009912
 30
6.96323776245117
 70
   192
  0
VERTEX
  5
1D1
330
169
100
AcDbEntity
  8
3D-P-SANR-FIXT
100
AcDbVertex
100
AcDbPolyFaceMeshVertex
 10
-2.541265904903411
 20
-0.0000000000009912
 30
6.81249976158142
 70
   192
  0
VERTEX
  5
1D2
330
169
100
AcDbEntity
  8
3D-P-SANR-FIXT
100
AcDbVertex
100
AcDbPolyFaceMeshVertex
 10
-2.441941738128661
 20
-0.0000000000009912
 30
6.683058500289916
 70
   192
  0
VERTEX
  5
1D3
330
169
100
AcDbEntity
  8
3D-P-SANR-FIXT
100
AcDbVertex
100
AcDbPolyFaceMeshVertex
 10
-2.312499940395354
 20
-0.0000000000009912
 30
6.583733797073363
 70
   192
  0
VERTEX
  5
1D4
330
169
100
AcDbEntity
  8
3D-P-SANR-FIXT
100
AcDbVertex
100
AcDbPolyFaceMeshVertex
 10
-2.161761939525603
 20
-0.0000000000009912
 30
6.521296262741087
 70
   192
  0
VERTEX
  5
1D5
330
169
100
AcDbEntity
  8
3D-P-SANR-FIXT
100
AcDbVertex
100
AcDbPolyFaceMeshVertex
 10
-2.000000059604644
 20
-0.0000000000009912
 30
6.500000238418578
 70
   192
  0
VERTEX
  5
1D6
330
169
100
AcDbEntity
  8
3D-P-SANR-FIXT
100
AcDbVertex
100
AcDbPolyFaceMeshVertex
 10
-1.838238179683685
 20
-0.0000000000009912
 30
6.521296262741087
 70
   192
  0
VERTEX
  5
1D7
330
169
100
AcDbEntity
  8
3D-P-SANR-FIXT
100
AcDbVertex
100
AcDbPolyFaceMeshVertex
 10
-1.687499999999999
 20
-0.0000000000009912
 30
6.583733797073363
 70
   192
  0
VERTEX
  5
1D8
330
169
100
AcDbEntity
  8
3D-P-SANR-FIXT
100
AcDbVertex
100
AcDbPolyFaceMeshVertex
 10
-1.558058202266692
 20
-0.0000000000009912
 30
6.683058500289916
 70
   192
  0
VERTEX
  5
1D9
330
169
100
AcDbEntity
  8
3D-P-SANR-FIXT
100
AcDbVertex
100
AcDbPolyFaceMeshVertex
 10
-1.45873412489891
 20
-0.0000000000009912
 30
6.81249976158142
 70
   192
  0
VERTEX
  5
1DA
330
169
100
AcDbEntity
  8
3D-P-SANR-FIXT
100
AcDbVertex
100
AcDbPolyFaceMeshVertex
 10
-1.396296322345733
 20
-0.0000000000009912
 30
6.96323776245117
 70
   192
  0
VERTEX
  5
1DB
330
169
100
AcDbEntity
  8
3D-P-SANR-FIXT
100
AcDbVertex
100
AcDbPolyFaceMeshVertex
 10
-1.375000029802322
 20
-0.0000000000009912
 30
7.124999999999999
 70
   192
  0
VERTEX
  5
1DC
330
169
100
AcDbEntity
  8
3D-P-SANR-FIXT
100
AcDbVertex
100
AcDbPolyFaceMeshVertex
 10
-1.396296322345733
 20
-0.0000000000009912
 30
7.286762237548827
 70
   192
  0
VERTEX
  5
1DD
330
169
100
AcDbEntity
  8
3D-P-SANR-FIXT
100
AcDbVertex
100
AcDbPolyFaceMeshVertex
 10
-1.45873412489891
 20
-0.0000000000009912
 30
7.437500238418578
 70
   192
  0
VERTEX
  5
1DE
330
169
100
AcDbEntity
  8
3D-P-SANR-FIXT
100
AcDbVertex
100
AcDbPolyFaceMeshVertex
 10
-1.558058202266692
 20
-0.0000000000009912
 30
7.566941499710082
 70
   192
  0
VERTEX
  5
1DF
330
169
100
AcDbEntity
  8
3D-P-SANR-FIXT
100
AcDbVertex
100
AcDbPolyFaceMeshVertex
 10
-1.687499999999999
 20
-0.0000000000009912
 30
7.666266202926634
 70
   192
  0
VERTEX
  5
1E0
330
169
100
AcDbEntity
  8
3D-P-SANR-FIXT
100
AcDbVertex
100
AcDbPolyFaceMeshVertex
 10
-1.838238179683685
 20
-0.0000000000009912
 30
7.72870373725891
 70
   192
  0
VERTEX
  5
1E1
330
169
100
AcDbEntity
  8
3D-P-SANR-FIXT
100
AcDbVertex
100
AcDbPolyFaceMeshVertex
 10
-2.000000059604644
 20
-0.0000000000009912
 30
7.74999976158142
 70
   192
  0
VERTEX
  5
1E2
330
169
100
AcDbEntity
  8
3D-P-SANR-FIXT
100
AcDbVertex
100
AcDbPolyFaceMeshVertex
 10
-2.161761939525603
 20
-0.0000000000009912
 30
7.72870373725891
 70
   192
  0
VERTEX
  5
1E3
330
169
100
AcDbEntity
  8
3D-P-SANR-FIXT
100
AcDbVertex
100
AcDbPolyFaceMeshVertex
 10
-2.312499940395354
 20
-0.0000000000009912
 30
7.666266202926634
 70
   192
  0
VERTEX
  5
1E4
330
169
100
AcDbEntity
  8
3D-P-SANR-FIXT
100
AcDbVertex
100
AcDbPolyFaceMeshVertex
 10
-2.441941738128661
 20
-0.0000000000009912
 30
7.566941499710082
 70
   192
  0
VERTEX
  5
1E5
330
169
100
AcDbEntity
  8
3D-P-SANR-FIXT
100
AcDbVertex
100
AcDbPolyFaceMeshVertex
 10
-2.541265904903411
 20
-0.0000000000009912
 30
7.437500238418578
 70
   192
  0
VERTEX
  5
1E6
330
169
100
AcDbEntity
  8
3D-P-SANR-FIXT
100
AcDbVertex
100
AcDbPolyFaceMeshVertex
 10
-2.603703618049621
 20
-0.0000000000009912
 30
7.286762237548827
 70
   192
  0
VERTEX
  5
1E7
330
169
100
AcDbEntity
  8
3D-P-SANR-FIXT
100
AcDbFaceRecord
 10
0.0
 20
0.0
 30
0.0
 70
   128
 71
   -52
 72
     9
 73
    10
 74
   -11
  0
VERTEX
  5
1E8
330
169
100
AcDbEntity
  8
3D-P-SANR-FIXT
100
AcDbFaceRecord
 10
0.0
 20
0.0
 30
0.0
 70
   128
 71
   -50
 72
    13
 73
   -14
 74
    49
  0
VERTEX
  5
1E9
330
169
100
AcDbEntity
  8
3D-P-SANR-FIXT
100
AcDbFaceRecord
 10
0.0
 20
0.0
 30
0.0
 70
   128
 71
   -51
 72
    11
 73
    12
 74
   -13
  0
VERTEX
  5
1EA
330
169
100
AcDbEntity
  8
3D-P-SANR-FIXT
100
AcDbFaceRecord
 10
0.0
 20
0.0
 30
0.0
 70
   128
 71
   -14
 72
    48
 73
   -49
  0
VERTEX
  5
1EB
330
169
100
AcDbEntity
  8
3D-P-SANR-FIXT
100
AcDbFaceRecord
 10
0.0
 20
0.0
 30
0.0
 70
   128
 71
     8
 72
    -9
 73
    52
 74
   -53
  0
VERTEX
  5
1EC
330
169
100
AcDbEntity
  8
3D-P-SANR-FIXT
100
AcDbFaceRecord
 10
0.0
 20
0.0
 30
0.0
 70
   128
 71
   -17
 72
    -8
 73
    53
  0
VERTEX
  5
1ED
330
169
100
AcDbEntity
  8
3D-P-SANR-FIXT
100
AcDbFaceRecord
 10
0.0
 20
0.0
 30
0.0
 70
   128
 71
   -11
 72
    51
 73
   -52
  0
VERTEX
  5
1EE
330
169
100
AcDbEntity
  8
3D-P-SANR-FIXT
100
AcDbFaceRecord
 10
0.0
 20
0.0
 30
0.0
 70
   128
 71
    46
 72
   -47
 73
    14
 74
   -15
  0
VERTEX
  5
1EF
330
169
100
AcDbEntity
  8
3D-P-SANR-FIXT
100
AcDbFaceRecord
 10
0.0
 20
0.0
 30
0.0
 70
   128
 71
   -48
 72
   -14
 73
    47
  0
VERTEX
  5
1F0
330
169
100
AcDbEntity
  8
3D-P-SANR-FIXT
100
AcDbFaceRecord
 10
0.0
 20
0.0
 30
0.0
 70
   128
 71
   -13
 72
    50
 73
   -51
  0
VERTEX
  5
1F1
330
169
100
AcDbEntity
  8
3D-P-SANR-FIXT
100
AcDbFaceRecord
 10
0.0
 20
0.0
 30
0.0
 70
   128
 71
   -46
 72
   -15
 73
    45
  0
VERTEX
  5
1F2
330
169
100
AcDbEntity
  8
3D-P-SANR-FIXT
100
AcDbFaceRecord
 10
0.0
 20
0.0
 30
0.0
 70
   128
 71
   -15
 72
    44
 73
   -45
  0
VERTEX
  5
1F3
330
169
100
AcDbEntity
  8
3D-P-SANR-FIXT
100
AcDbFaceRecord
 10
0.0
 20
0.0
 30
0.0
 70
   128
 71
    42
 72
   -43
 73
   -15
  0
VERTEX
  5
1F4
330
169
100
AcDbEntity
  8
3D-P-SANR-FIXT
100
AcDbFaceRecord
 10
0.0
 20
0.0
 30
0.0
 70
   128
 71
    43
 72
   -44
 73
   -15
  0
VERTEX
  5
1F5
330
169
100
AcDbEntity
  8
3D-P-SANR-FIXT
100
AcDbFaceRecord
 10
0.0
 20
0.0
 30
0.0
 70
   128
 71
   -67
 72
    39
 73
   -40
 74
    66
  0
VERTEX
  5
1F6
330
169
100
AcDbEntity
  8
3D-P-SANR-FIXT
100
AcDbFaceRecord
 10
0.0
 20
0.0
 30
0.0
 70
   128
 71
   -71
 72
   -38
 73
    70
  0
VERTEX
  5
1F7
330
169
100
AcDbEntity
  8
3D-P-SANR-FIXT
100
AcDbFaceRecord
 10
0.0
 20
0.0
 30
0.0
 70
   128
 71
   -69
 72
    38
 73
   -39
 74
    68
  0
VERTEX
  5
1F8
330
169
100
AcDbEntity
  8
3D-P-SANR-FIXT
100
AcDbFaceRecord
 10
0.0
 20
0.0
 30
0.0
 70
   128
 71
   -66
 72
    40
 73
   -41
 74
   -15
  0
VERTEX
  5
1F9
330
169
100
AcDbEntity
  8
3D-P-SANR-FIXT
100
AcDbFaceRecord
 10
0.0
 20
0.0
 30
0.0
 70
   128
 71
   -74
 72
    36
 73
   -37
 74
    73
  0
VERTEX
  5
1FA
330
169
100
AcDbEntity
  8
3D-P-SANR-FIXT
100
AcDbFaceRecord
 10
0.0
 20
0.0
 30
0.0
 70
   128
 71
    71
 72
   -72
 73
    37
 74
   -38
  0
VERTEX
  5
1FB
330
169
100
AcDbEntity
  8
3D-P-SANR-FIXT
100
AcDbFaceRecord
 10
0.0
 20
0.0
 30
0.0
 70
   128
 71
   -95
 72
    35
 73
   -36
 74
    94
  0
VERTEX
  5
1FC
330
169
100
AcDbEntity
  8
3D-P-SANR-FIXT
100
AcDbFaceRecord
 10
0.0
 20
0.0
 30
0.0
 70
   128
 71
   -73
 72
   -37
 73
    72
  0
VERTEX
  5
1FD
330
169
100
AcDbEntity
  8
3D-P-SANR-FIXT
100
AcDbFaceRecord
 10
0.0
 20
0.0
 30
0.0
 70
   128
 71
    93
 72
   -94
 73
   -36
 74
   -75
  0
VERTEX
  5
1FE
330
169
100
AcDbEntity
  8
3D-P-SANR-FIXT
100
AcDbFaceRecord
 10
0.0
 20
0.0
 30
0.0
 70
   128
 71
   -35
 72
    95
 73
   -96
  0
VERTEX
  5
1FF
330
169
100
AcDbEntity
  8
3D-P-SANR-FIXT
100
AcDbFaceRecord
 10
0.0
 20
0.0
 30
0.0
 70
   128
 71
    41
 72
   -42
 73
   -15
  0
VERTEX
  5
200
330
169
100
AcDbEntity
  8
3D-P-SANR-FIXT
100
AcDbFaceRecord
 10
0.0
 20
0.0
 30
0.0
 70
   128
 71
    17
 72
   -18
 73
     7
 74
    -8
  0
VERTEX
  5
201
330
169
100
AcDbEntity
  8
3D-P-SANR-FIXT
100
AcDbFaceRecord
 10
0.0
 20
0.0
 30
0.0
 70
   128
 71
     6
 72
    -7
 73
   -18
 74
     5
  0
VERTEX
  5
202
330
169
100
AcDbEntity
  8
3D-P-SANR-FIXT
100
AcDbFaceRecord
 10
0.0
 20
0.0
 30
0.0
 70
   128
 71
    -1
 72
    23
 73
   -24
 74
    16
  0
VERTEX
  5
203
330
169
100
AcDbEntity
  8
3D-P-SANR-FIXT
100
AcDbFaceRecord
 10
0.0
 20
0.0
 30
0.0
 70
   128
 71
   -23
 72
    -1
 73
    22
  0
VERTEX
  5
204
330
169
100
AcDbEntity
  8
3D-P-SANR-FIXT
100
AcDbFaceRecord
 10
0.0
 20
0.0
 30
0.0
 70
   128
 71
    18
 72
   -19
 73
     4
 74
    -5
  0
VERTEX
  5
205
330
169
100
AcDbEntity
  8
3D-P-SANR-FIXT
100
AcDbFaceRecord
 10
0.0
 20
0.0
 30
0.0
 70
   128
 71
     3
 72
    -4
 73
   -19
 74
     2
  0
VERTEX
  5
206
330
169
100
AcDbEntity
  8
3D-P-SANR-FIXT
100
AcDbFaceRecord
 10
0.0
 20
0.0
 30
0.0
 70
   128
 71
    20
 72
   -21
 73
     1
 74
    -2
  0
VERTEX
  5
207
330
169
100
AcDbEntity
  8
3D-P-SANR-FIXT
100
AcDbFaceRecord
 10
0.0
 20
0.0
 30
0.0
 70
   128
 71
    21
 72
   -22
 73
    -1
  0
VERTEX
  5
208
330
169
100
AcDbEntity
  8
3D-P-SANR-FIXT
100
AcDbFaceRecord
 10
0.0
 20
0.0
 30
0.0
 70
   128
 71
    19
 72
   -20
 73
    -2
  0
VERTEX
  5
209
330
169
100
AcDbEntity
  8
3D-P-SANR-FIXT
100
AcDbFaceRecord
 10
0.0
 20
0.0
 30
0.0
 70
   128
 71
   118
 72
  -119
 73
    33
 74
   -34
  0
VERTEX
  5
20A
330
169
100
AcDbEntity
  8
3D-P-SANR-FIXT
100
AcDbFaceRecord
 10
0.0
 20
0.0
 30
0.0
 70
   128
 71
   -33
 72
   120
 73
  -121
 74
    32
  0
VERTEX
  5
20B
330
169
100
AcDbEntity
  8
3D-P-SANR-FIXT
100
AcDbFaceRecord
 10
0.0
 20
0.0
 30
0.0
 70
   128
 71
   119
 72
  -120
 73
   -33
  0
VERTEX
  5
20C
330
169
100
AcDbEntity
  8
3D-P-SANR-FIXT
100
AcDbFaceRecord
 10
0.0
 20
0.0
 30
0.0
 70
   128
 71
    34
 72
   -35
 73
    97
 74
   -98
  0
VERTEX
  5
20D
330
169
100
AcDbEntity
  8
3D-P-SANR-FIXT
100
AcDbFaceRecord
 10
0.0
 20
0.0
 30
0.0
 70
   128
 71
   -34
 72
    98
 73
   -99
 74
  -117
  0
VERTEX
  5
20E
330
169
100
AcDbEntity
  8
3D-P-SANR-FIXT
100
AcDbFaceRecord
 10
0.0
 20
0.0
 30
0.0
 70
   128
 71
    27
 72
   -28
 73
   -16
  0
VERTEX
  5
20F
330
169
100
AcDbEntity
  8
3D-P-SANR-FIXT
100
AcDbFaceRecord
 10
0.0
 20
0.0
 30
0.0
 70
   128
 71
   -16
 72
    24
 73
   -25
  0
VERTEX
  5
210
330
169
100
AcDbEntity
  8
3D-P-SANR-FIXT
100
AcDbFaceRecord
 10
0.0
 20
0.0
 30
0.0
 70
   128
 71
    25
 72
   -26
 73
   -16
  0
VERTEX
  5
211
330
169
100
AcDbEntity
  8
3D-P-SANR-FIXT
100
AcDbFaceRecord
 10
0.0
 20
0.0
 30
0.0
 70
   128
 71
  -123
 72
    31
 73
   -32
 74
   122
  0
VERTEX
  5
212
330
169
100
AcDbEntity
  8
3D-P-SANR-FIXT
100
AcDbFaceRecord
 10
0.0
 20
0.0
 30
0.0
 70
   128
 71
    29
 72
   -30
 73
  -102
 74
   -16
  0
VERTEX
  5
213
330
169
100
AcDbEntity
  8
3D-P-SANR-FIXT
100
AcDbFaceRecord
 10
0.0
 20
0.0
 30
0.0
 70
   128
 71
    30
 72
   -31
 73
   125
 74
  -102
  0
VERTEX
  5
214
330
169
100
AcDbEntity
  8
3D-P-SANR-FIXT
100
AcDbFaceRecord
 10
0.0
 20
0.0
 30
0.0
 70
   128
 71
   -16
 72
    28
 73
   -29
  0
VERTEX
  5
215
330
169
100
AcDbEntity
  8
3D-P-SANR-FIXT
100
AcDbFaceRecord
 10
0.0
 20
0.0
 30
0.0
 70
   128
 71
   -32
 72
   121
 73
  -122
  0
VERTEX
  5
216
330
169
100
AcDbEntity
  8
3D-P-SANR-FIXT
100
AcDbFaceRecord
 10
0.0
 20
0.0
 30
0.0
 70
   128
 71
   -97
 72
   -35
 73
    96
  0
VERTEX
  5
217
330
169
100
AcDbEntity
  8
3D-P-SANR-FIXT
100
AcDbFaceRecord
 10
0.0
 20
0.0
 30
0.0
 70
   128
 71
   -16
 72
    26
 73
   -27
  0
VERTEX
  5
218
330
169
100
AcDbEntity
  8
3D-P-SANR-FIXT
100
AcDbFaceRecord
 10
0.0
 20
0.0
 30
0.0
 70
   128
 71
   -68
 72
   -39
 73
    67
  0
VERTEX
  5
219
330
169
100
AcDbEntity
  8
3D-P-SANR-FIXT
100
AcDbFaceRecord
 10
0.0
 20
0.0
 30
0.0
 70
   128
 71
   -70
 72
   -38
 73
    69
  0
VERTEX
  5
21A
330
169
100
AcDbEntity
  8
3D-P-SANR-FIXT
100
AcDbFaceRecord
 10
0.0
 20
0.0
 30
0.0
 70
   128
 71
    91
 72
   -92
 73
    76
 74
   -77
  0
VERTEX
  5
21B
330
169
100
AcDbEntity
  8
3D-P-SANR-FIXT
100
AcDbFaceRecord
 10
0.0
 20
0.0
 30
0.0
 70
   128
 71
    92
 72
   -93
 73
    75
 74
   -76
  0
VERTEX
  5
21C
330
169
100
AcDbEntity
  8
3D-P-SANR-FIXT
100
AcDbFaceRecord
 10
0.0
 20
0.0
 30
0.0
 70
   128
 71
   -90
 72
    77
 73
   -54
 74
    89
  0
VERTEX
  5
21D
330
169
100
AcDbEntity
  8
3D-P-SANR-FIXT
100
AcDbFaceRecord
 10
0.0
 20
0.0
 30
0.0
 70
   128
 71
   -89
 72
    54
 73
   -55
 74
    88
  0
VERTEX
  5
21E
330
169
100
AcDbEntity
  8
3D-P-SANR-FIXT
100
AcDbFaceRecord
 10
0.0
 20
0.0
 30
0.0
 70
   128
 71
   -77
 72
    90
 73
   -91
  0
VERTEX
  5
21F
330
169
100
AcDbEntity
  8
3D-P-SANR-FIXT
100
AcDbFaceRecord
 10
0.0
 20
0.0
 30
0.0
 70
   128
 71
    64
 72
   -65
 73
   -15
  0
VERTEX
  5
220
330
169
100
AcDbEntity
  8
3D-P-SANR-FIXT
100
AcDbFaceRecord
 10
0.0
 20
0.0
 30
0.0
 70
   128
 71
    62
 72
   -63
 73
   -15
  0
VERTEX
  5
221
330
169
100
AcDbEntity
  8
3D-P-SANR-FIXT
100
AcDbFaceRecord
 10
0.0
 20
0.0
 30
0.0
 70
   128
 71
   -64
 72
   -15
 73
    63
  0
VERTEX
  5
222
330
169
100
AcDbEntity
  8
3D-P-SANR-FIXT
100
AcDbFaceRecord
 10
0.0
 20
0.0
 30
0.0
 70
   128
 71
   -61
 72
   -15
 73
    60
  0
VERTEX
  5
223
330
169
100
AcDbEntity
  8
3D-P-SANR-FIXT
100
AcDbFaceRecord
 10
0.0
 20
0.0
 30
0.0
 70
   128
 71
   -15
 72
    61
 73
   -62
  0
VERTEX
  5
224
330
169
100
AcDbEntity
  8
3D-P-SANR-FIXT
100
AcDbFaceRecord
 10
0.0
 20
0.0
 30
0.0
 70
   128
 71
    84
 72
   -85
 73
    59
 74
   -60
  0
VERTEX
  5
225
330
169
100
AcDbEntity
  8
3D-P-SANR-FIXT
100
AcDbFaceRecord
 10
0.0
 20
0.0
 30
0.0
 70
   128
 71
    65
 72
   -66
 73
   -15
  0
VERTEX
  5
226
330
169
100
AcDbEntity
  8
3D-P-SANR-FIXT
100
AcDbFaceRecord
 10
0.0
 20
0.0
 30
0.0
 70
   128
 71
   -88
 72
    55
 73
   -56
 74
    87
  0
VERTEX
  5
227
330
169
100
AcDbEntity
  8
3D-P-SANR-FIXT
100
AcDbFaceRecord
 10
0.0
 20
0.0
 30
0.0
 70
   128
 71
   -87
 72
    56
 73
   -57
 74
    86
  0
VERTEX
  5
228
330
169
100
AcDbEntity
  8
3D-P-SANR-FIXT
100
AcDbFaceRecord
 10
0.0
 20
0.0
 30
0.0
 70
   128
 71
   -86
 72
    57
 73
   -58
 74
    85
  0
VERTEX
  5
229
330
169
100
AcDbEntity
  8
3D-P-SANR-FIXT
100
AcDbFaceRecord
 10
0.0
 20
0.0
 30
0.0
 70
   128
 71
    58
 72
   -59
 73
   -85
  0
VERTEX
  5
22A
330
169
100
AcDbEntity
  8
3D-P-SANR-FIXT
100
AcDbFaceRecord
 10
0.0
 20
0.0
 30
0.0
 70
   128
 71
   -84
 72
   -60
 73
    15
 74
   -16
  0
VERTEX
  5
22B
330
169
100
AcDbEntity
  8
3D-P-SANR-FIXT
100
AcDbFaceRecord
 10
0.0
 20
0.0
 30
0.0
 70
   128
 71
  -117
 72
    99
 73
  -100
 74
   116
  0
VERTEX
  5
22C
330
169
100
AcDbEntity
  8
3D-P-SANR-FIXT
100
AcDbFaceRecord
 10
0.0
 20
0.0
 30
0.0
 70
   128
 71
   100
 72
  -101
 73
  -116
  0
VERTEX
  5
22D
330
169
100
AcDbEntity
  8
3D-P-SANR-FIXT
100
AcDbFaceRecord
 10
0.0
 20
0.0
 30
0.0
 70
   128
 71
   101
 72
   -78
 73
   115
 74
  -116
  0
VERTEX
  5
22E
330
169
100
AcDbEntity
  8
3D-P-SANR-FIXT
100
AcDbFaceRecord
 10
0.0
 20
0.0
 30
0.0
 70
   128
 71
  -114
 72
    78
 73
   -79
 74
   113
  0
VERTEX
  5
22F
330
169
100
AcDbEntity
  8
3D-P-SANR-FIXT
100
AcDbFaceRecord
 10
0.0
 20
0.0
 30
0.0
 70
   128
 71
  -113
 72
    79
 73
   -80
 74
   112
  0
VERTEX
  5
230
330
169
100
AcDbEntity
  8
3D-P-SANR-FIXT
100
AcDbFaceRecord
 10
0.0
 20
0.0
 30
0.0
 70
   128
 71
   -78
 72
   114
 73
  -115
  0
VERTEX
  5
231
330
169
100
AcDbEntity
  8
3D-P-SANR-FIXT
100
AcDbFaceRecord
 10
0.0
 20
0.0
 30
0.0
 70
   128
 71
  -118
 72
   -34
 73
   117
  0
VERTEX
  5
232
330
169
100
AcDbEntity
  8
3D-P-SANR-FIXT
100
AcDbFaceRecord
 10
0.0
 20
0.0
 30
0.0
 70
   128
 71
  -125
 72
   -31
 73
   124
  0
VERTEX
  5
233
330
169
100
AcDbEntity
  8
3D-P-SANR-FIXT
100
AcDbFaceRecord
 10
0.0
 20
0.0
 30
0.0
 70
   128
 71
  -112
 72
    80
 73
   -81
 74
   111
  0
VERTEX
  5
234
330
169
100
AcDbEntity
  8
3D-P-SANR-FIXT
100
AcDbFaceRecord
 10
0.0
 20
0.0
 30
0.0
 70
   128
 71
  -111
 72
    81
 73
   -82
 74
   110
  0
VERTEX
  5
235
330
169
100
AcDbEntity
  8
3D-P-SANR-FIXT
100
AcDbFaceRecord
 10
0.0
 20
0.0
 30
0.0
 70
   128
 71
   -83
 72
   109
 73
  -110
 74
    82
  0
VERTEX
  5
236
330
169
100
AcDbEntity
  8
3D-P-SANR-FIXT
100
AcDbFaceRecord
 10
0.0
 20
0.0
 30
0.0
 70
   128
 71
  -109
 72
    83
 73
   -84
 74
   108
  0
VERTEX
  5
237
330
169
100
AcDbEntity
  8
3D-P-SANR-FIXT
100
AcDbFaceRecord
 10
0.0
 20
0.0
 30
0.0
 70
   128
 71
   105
 72
  -106
 73
   -16
  0
VERTEX
  5
238
330
169
100
AcDbEntity
  8
3D-P-SANR-FIXT
100
AcDbFaceRecord
 10
0.0
 20
0.0
 30
0.0
 70
   128
 71
   103
 72
  -104
 73
   -16
  0
VERTEX
  5
239
330
169
100
AcDbEntity
  8
3D-P-SANR-FIXT
100
AcDbFaceRecord
 10
0.0
 20
0.0
 30
0.0
 70
   128
 71
  -105
 72
   -16
 73
   104
  0
VERTEX
  5
23A
330
169
100
AcDbEntity
  8
3D-P-SANR-FIXT
100
AcDbFaceRecord
 10
0.0
 20
0.0
 30
0.0
 70
   128
 71
  -107
 72
   -16
 73
   106
  0
VERTEX
  5
23B
330
169
100
AcDbEntity
  8
3D-P-SANR-FIXT
100
AcDbFaceRecord
 10
0.0
 20
0.0
 30
0.0
 70
   128
 71
   -16
 72
   107
 73
  -108
  0
VERTEX
  5
23C
330
169
100
AcDbEntity
  8
3D-P-SANR-FIXT
100
AcDbFaceRecord
 10
0.0
 20
0.0
 30
0.0
 70
   128
 71
   -84
 72
   -16
 73
  -108
  0
VERTEX
  5
23D
330
169
100
AcDbEntity
  8
3D-P-SANR-FIXT
100
AcDbFaceRecord
 10
0.0
 20
0.0
 30
0.0
 70
   128
 71
  -103
 72
   -16
 73
   102
  0
VERTEX
  5
23E
330
169
100
AcDbEntity
  8
3D-P-SANR-FIXT
100
AcDbFaceRecord
 10
0.0
 20
0.0
 30
0.0
 70
   128
 71
  -124
 72
   -31
 73
   123
  0
VERTEX
  5
23F
330
169
100
AcDbEntity
  8
3D-P-SANR-FIXT
100
AcDbFaceRecord
 10
0.0
 20
0.0
 30
0.0
 70
   128
 71
   -36
 72
    74
 73
   -75
  0
SEQEND
  5
240
330
169
100
AcDbEntity
  8
3D-P-SANR-FIXT
  0
POLYLINE
  5
241
330
AA
100
AcDbEntity
  8
3D-P-SANR-FIXT
100
AcDbPolyFaceMesh
 66
     1
 10
0.0
 20
0.0
 30
0.0
 70
    64
 71
     4
 72
     1
1001
REVIT
1002
{
1070
     4
1000
6241
1002
}
1002
{
1070
     2
1000
-2001160
1002
}
  0
VERTEX
  5
242
330
241
100
AcDbEntity
  8
3D-P-SANR-FIXT
100
AcDbVertex
100
AcDbPolyFaceMeshVertex
 10
-9.999999761581419
 20
-6.62499976158142
 30
-0.0000000000000746
 70
   192
  0
VERTEX
  5
243
330
241
100
AcDbEntity
  8
3D-P-SANR-FIXT
100
AcDbVertex
100
AcDbPolyFaceMeshVertex
 10
-9.999999761581419
 20
-6.62499976158142
 30
19.99999952316284
 70
   192
  0
VERTEX
  5
244
330
241
100
AcDbEntity
  8
3D-P-SANR-FIXT
100
AcDbVertex
100
AcDbPolyFaceMeshVertex
 10
-9.999999761581419
 20
-0.0000000000009912
 30
24.0
 70
   192
  0
VERTEX
  5
245
330
241
100
AcDbEntity
  8
3D-P-SANR-FIXT
100
AcDbVertex
100
AcDbPolyFaceMeshVertex
 10
-9.999999761581419
 20
-0.0000000000009912
 30
-0.0000000000000093
 70
   192
  0
VERTEX
  5
246
330
241
100
AcDbEntity
  8
3D-P-SANR-FIXT
100
AcDbFaceRecord
 10
0.0
 20
0.0
 30
0.0
 70
   128
 71
     2
 72
     3
 73
     4
 74
     1
  0
SEQEND
  5
247
330
241
100
AcDbEntity
  8
3D-P-SANR-FIXT
  0
POLYLINE
  5
248
330
AA
100
AcDbEntity
  8
3D-P-SANR-FIXT
100
AcDbPolyFaceMesh
 66
     1
 10
0.0
 20
0.0
 30
0.0
 70
    64
 71
     4
 72
     1
1001
REVIT
1002
{
1070
     4
1000
6241
1002
}
1002
{
1070
     2
1000
-2001160
1002
}
  0
VERTEX
  5
249
330
248
100
AcDbEntity
  8
3D-P-SANR-FIXT
100
AcDbVertex
100
AcDbPolyFaceMeshVertex
 10
9.999999761581419
 20
-6.62499976158142
 30
-0.0000000000001392
 70
   192
  0
VERTEX
  5
24A
330
248
100
AcDbEntity
  8
3D-P-SANR-FIXT
100
AcDbVertex
100
AcDbPolyFaceMeshVertex
 10
-9.999999761581419
 20
-6.62499976158142
 30
-0.0000000000000746
 70
   192
  0
VERTEX
  5
24B
330
248
100
AcDbEntity
  8
3D-P-SANR-FIXT
100
AcDbVertex
100
AcDbPolyFaceMeshVertex
 10
-9.999999761581419
 20
-0.0000000000009912
 30
-0.00000000000001
 70
   192
  0
VERTEX
  5
24C
330
248
100
AcDbEntity
  8
3D-P-SANR-FIXT
100
AcDbVertex
100
AcDbPolyFaceMeshVertex
 10
9.999999761581419
 20
-0.0000000000009912
 30
-0.0000000000000746
 70
   192
  0
VERTEX
  5
24D
330
248
100
AcDbEntity
  8
3D-P-SANR-FIXT
100
AcDbFaceRecord
 10
0.0
 20
0.0
 30
0.0
 70
   128
 71
     2
 72
     3
 73
     4
 74
     1
  0
SEQEND
  5
24E
330
248
100
AcDbEntity
  8
3D-P-SANR-FIXT
  0
POLYLINE
  5
24F
330
AA
100
AcDbEntity
  8
3D-P-SANR-FIXT
100
AcDbPolyFaceMesh
 66
     1
 10
0.0
 20
0.0
 30
0.0
 70
    64
 71
     4
 72
     1
1001
REVIT
1002
{
1070
     4
1000
6241
1002
}
1002
{
1070
     2
1000
-2001160
1002
}
  0
VERTEX
  5
250
330
24F
100
AcDbEntity
  8
3D-P-SANR-FIXT
100
AcDbVertex
100
AcDbPolyFaceMeshVertex
 10
9.999999761581419
 20
-6.62499976158142
 30
19.99999952316284
 70
   192
  0
VERTEX
  5
251
330
24F
100
AcDbEntity
  8
3D-P-SANR-FIXT
100
AcDbVertex
100
AcDbPolyFaceMeshVertex
 10
9.999999761581419
 20
-6.62499976158142
 30
-0.0000000000001386
 70
   192
  0
VERTEX
  5
252
330
24F
100
AcDbEntity
  8
3D-P-SANR-FIXT
100
AcDbVertex
100
AcDbPolyFaceMeshVertex
 10
9.999999761581419
 20
-0.0000000000009912
 30
-0.0000000000000746
 70
   192
  0
VERTEX
  5
253
330
24F
100
AcDbEntity
  8
3D-P-SANR-FIXT
100
AcDbVertex
100
AcDbPolyFaceMeshVertex
 10
9.999999761581419
 20
-0.0000000000009912
 30
24.0
 70
   192
  0
VERTEX
  5
254
330
24F
100
AcDbEntity
  8
3D-P-SANR-FIXT
100
AcDbFaceRecord
 10
0.0
 20
0.0
 30
0.0
 70
   128
 71
     1
 72
     2
 73
     3
 74
     4
  0
SEQEND
  5
255
330
24F
100
AcDbEntity
  8
3D-P-SANR-FIXT
  0
POLYLINE
  5
256
330
AA
100
AcDbEntity
  8
3D-P-SANR-FIXT
100
AcDbPolyFaceMesh
 66
     1
 10
0.0
 20
0.0
 30
0.0
 70
    64
 71
    14
 72
    12
1001
REVIT
1002
{
1070
     4
1000
6241
1002
}
1002
{
1070
     2
1000
-2001160
1002
}
  0
VERTEX
  5
257
330
256
100
AcDbEntity
  8
3D-P-SANR-FIXT
100
AcDbVertex
100
AcDbPolyFaceMeshVertex
 10
5.999999999999999
 20
-6.62499976158142
 30
24.0
 70
   192
  0
VERTEX
  5
258
330
256
100
AcDbEntity
  8
3D-P-SANR-FIXT
100
AcDbVertex
100
AcDbPolyFaceMeshVertex
 10
7.035276174545287
 20
-6.62499976158142
 30
23.86370372772216
 70
   192
  0
VERTEX
  5
259
330
256
100
AcDbEntity
  8
3D-P-SANR-FIXT
100
AcDbVertex
100
AcDbPolyFaceMeshVertex
 10
8.000000238418577
 20
-6.62499976158142
 30
23.46410179138183
 70
   192
  0
VERTEX
  5
25A
330
256
100
AcDbEntity
  8
3D-P-SANR-FIXT
100
AcDbVertex
100
AcDbPolyFaceMeshVertex
 10
8.828427314758299
 20
-6.62499976158142
 30
22.82842683792114
 70
   192
  0
VERTEX
  5
25B
330
256
100
AcDbEntity
  8
3D-P-SANR-FIXT
100
AcDbVertex
100
AcDbPolyFaceMeshVertex
 10
9.464101552963255
 20
-6.62499976158142
 30
22.00000047683715
 70
   192
  0
VERTEX
  5
25C
330
256
100
AcDbEntity
  8
3D-P-SANR-FIXT
100
AcDbVertex
100
AcDbPolyFaceMeshVertex
 10
9.863703489303587
 20
-6.62499976158142
 30
21.03527641296386
 70
   192
  0
VERTEX
  5
25D
330
256
100
AcDbEntity
  8
3D-P-SANR-FIXT
100
AcDbVertex
100
AcDbPolyFaceMeshVertex
 10
9.999999761581419
 20
-6.62499976158142
 30
19.99999952316284
 70
   192
  0
VERTEX
  5
25E
330
256
100
AcDbEntity
  8
3D-P-SANR-FIXT
100
AcDbVertex
100
AcDbPolyFaceMeshVertex
 10
9.999999761581419
 20
-0.0000000000009912
 30
24.0
 70
   192
  0
VERTEX
  5
25F
330
256
100
AcDbEntity
  8
3D-P-SANR-FIXT
100
AcDbVertex
100
AcDbPolyFaceMeshVertex
 10
9.897777557373045
 20
-0.0000000000009912
 30
24.77645587921142
 70
   192
  0
VERTEX
  5
260
330
256
100
AcDbEntity
  8
3D-P-SANR-FIXT
100
AcDbVertex
100
AcDbPolyFaceMeshVertex
 10
9.598076105117796
 20
-0.0000000000009912
 30
25.5
 70
   192
  0
VERTEX
  5
261
330
256
100
AcDbEntity
  8
3D-P-SANR-FIXT
100
AcDbVertex
100
AcDbPolyFaceMeshVertex
 10
9.121320247650144
 20
-0.0000000000009914
 30
26.12131977081299
 70
   192
  0
VERTEX
  5
262
330
256
100
AcDbEntity
  8
3D-P-SANR-FIXT
100
AcDbVertex
100
AcDbPolyFaceMeshVertex
 10
8.499999761581419
 20
-0.0000000000009911
 30
26.5980749130249
 70
   192
  0
VERTEX
  5
263
330
256
100
AcDbEntity
  8
3D-P-SANR-FIXT
100
AcDbVertex
100
AcDbPolyFaceMeshVertex
 10
7.77645707130432
 20
-0.0000000000009918
 30
26.89777851104736
 70
   192
  0
VERTEX
  5
264
330
256
100
AcDbEntity
  8
3D-P-SANR-FIXT
100
AcDbVertex
100
AcDbPolyFaceMeshVertex
 10
6.99999976158142
 20
-0.0000000000009912
 30
27.0
 70
   192
  0
VERTEX
  5
265
330
256
100
AcDbEntity
  8
3D-P-SANR-FIXT
100
AcDbFaceRecord
 10
0.0
 20
0.0
 30
0.0
 70
   128
 71
    -6
 72
     8
 73
    -9
  0
VERTEX
  5
266
330
256
100
AcDbEntity
  8
3D-P-SANR-FIXT
100
AcDbFaceRecord
 10
0.0
 20
0.0
 30
0.0
 70
   128
 71
    -5
 72
     9
 73
   -10
  0
VERTEX
  5
267
330
256
100
AcDbEntity
  8
3D-P-SANR-FIXT
100
AcDbFaceRecord
 10
0.0
 20
0.0
 30
0.0
 70
   128
 71
     7
 72
    -8
 73
     6
  0
VERTEX
  5
268
330
256
100
AcDbEntity
  8
3D-P-SANR-FIXT
100
AcDbFaceRecord
 10
0.0
 20
0.0
 30
0.0
 70
   128
 71
     5
 72
    -6
 73
    -9
  0
VERTEX
  5
269
330
256
100
AcDbEntity
  8
3D-P-SANR-FIXT
100
AcDbFaceRecord
 10
0.0
 20
0.0
 30
0.0
 70
   128
 71
     4
 72
    -5
 73
   -10
  0
VERTEX
  5
26A
330
256
100
AcDbEntity
  8
3D-P-SANR-FIXT
100
AcDbFaceRecord
 10
0.0
 20
0.0
 30
0.0
 70
   128
 71
    10
 72
   -11
 73
    -4
  0
VERTEX
  5
26B
330
256
100
AcDbEntity
  8
3D-P-SANR-FIXT
100
AcDbFaceRecord
 10
0.0
 20
0.0
 30
0.0
 70
   128
 71
    13
 72
   -14
 73
    -2
  0
VERTEX
  5
26C
330
256
100
AcDbEntity
  8
3D-P-SANR-FIXT
100
AcDbFaceRecord
 10
0.0
 20
0.0
 30
0.0
 70
   128
 71
     3
 72
    -4
 73
   -12
  0
VERTEX
  5
26D
330
256
100
AcDbEntity
  8
3D-P-SANR-FIXT
100
AcDbFaceRecord
 10
0.0
 20
0.0
 30
0.0
 70
   128
 71
    12
 72
   -13
 73
    -3
  0
VERTEX
  5
26E
330
256
100
AcDbEntity
  8
3D-P-SANR-FIXT
100
AcDbFaceRecord
 10
0.0
 20
0.0
 30
0.0
 70
   128
 71
    -3
 72
   -13
 73
     2
  0
VERTEX
  5
26F
330
256
100
AcDbEntity
  8
3D-P-SANR-FIXT
100
AcDbFaceRecord
 10
0.0
 20
0.0
 30
0.0
 70
   128
 71
    14
 72
     1
 73
    -2
  0
VERTEX
  5
270
330
256
100
AcDbEntity
  8
3D-P-SANR-FIXT
100
AcDbFaceRecord
 10
0.0
 20
0.0
 30
0.0
 70
   128
 71
   -12
 72
    -4
 73
    11
  0
SEQEND
  5
271
330
256
100
AcDbEntity
  8
3D-P-SANR-FIXT
  0
POLYLINE
  5
272
330
AA
100
AcDbEntity
  8
3D-P-SANR-FIXT
100
AcDbPolyFaceMesh
 66
     1
 10
0.0
 20
0.0
 30
0.0
 70
    64
 71
     4
 72
     1
1001
REVIT
1002
{
1070
     4
1000
6241
1002
}
1002
{
1070
     2
1000
-2001160
1002
}
  0
VERTEX
  5
273
330
272
100
AcDbEntity
  8
3D-P-SANR-FIXT
100
AcDbVertex
100
AcDbPolyFaceMeshVertex
 10
-5.999999999999999
 20
-6.62499976158142
 30
24.0
 70
   192
  0
VERTEX
  5
274
330
272
100
AcDbEntity
  8
3D-P-SANR-FIXT
100
AcDbVertex
100
AcDbPolyFaceMeshVertex
 10
5.999999999999999
 20
-6.62499976158142
 30
24.0
 70
   192
  0
VERTEX
  5
275
330
272
100
AcDbEntity
  8
3D-P-SANR-FIXT
100
AcDbVertex
100
AcDbPolyFaceMeshVertex
 10
6.99999976158142
 20
-0.0000000000009908
 30
27.0
 70
   192
  0
VERTEX
  5
276
330
272
100
AcDbEntity
  8
3D-P-SANR-FIXT
100
AcDbVertex
100
AcDbPolyFaceMeshVertex
 10
-6.99999976158142
 20
-0.0000000000009916
 30
27.0
 70
   192
  0
VERTEX
  5
277
330
272
100
AcDbEntity
  8
3D-P-SANR-FIXT
100
AcDbFaceRecord
 10
0.0
 20
0.0
 30
0.0
 70
   128
 71
     1
 72
     2
 73
     3
 74
     4
  0
SEQEND
  5
278
330
272
100
AcDbEntity
  8
3D-P-SANR-FIXT
  0
POLYLINE
  5
279
330
AA
100
AcDbEntity
  8
3D-P-SANR-FIXT
100
AcDbPolyFaceMesh
 66
     1
 10
0.0
 20
0.0
 30
0.0
 70
    64
 71
    14
 72
    12
1001
REVIT
1002
{
1070
     4
1000
6241
1002
}
1002
{
1070
     2
1000
-2001160
1002
}
  0
VERTEX
  5
27A
330
279
100
AcDbEntity
  8
3D-P-SANR-FIXT
100
AcDbVertex
100
AcDbPolyFaceMeshVertex
 10
-9.999999761581419
 20
-6.62499976158142
 30
19.99999952316284
 70
   192
  0
VERTEX
  5
27B
330
279
100
AcDbEntity
  8
3D-P-SANR-FIXT
100
AcDbVertex
100
AcDbPolyFaceMeshVertex
 10
-9.863703489303587
 20
-6.62499976158142
 30
21.03527641296386
 70
   192
  0
VERTEX
  5
27C
330
279
100
AcDbEntity
  8
3D-P-SANR-FIXT
100
AcDbVertex
100
AcDbPolyFaceMeshVertex
 10
-9.464101552963255
 20
-6.62499976158142
 30
22.00000047683715
 70
   192
  0
VERTEX
  5
27D
330
279
100
AcDbEntity
  8
3D-P-SANR-FIXT
100
AcDbVertex
100
AcDbPolyFaceMeshVertex
 10
-8.828427314758299
 20
-6.62499976158142
 30
22.82842683792114
 70
   192
  0
VERTEX
  5
27E
330
279
100
AcDbEntity
  8
3D-P-SANR-FIXT
100
AcDbVertex
100
AcDbPolyFaceMeshVertex
 10
-8.000000238418577
 20
-6.62499976158142
 30
23.46410179138183
 70
   192
  0
VERTEX
  5
27F
330
279
100
AcDbEntity
  8
3D-P-SANR-FIXT
100
AcDbVertex
100
AcDbPolyFaceMeshVertex
 10
-7.035276174545287
 20
-6.62499976158142
 30
23.86370372772216
 70
   192
  0
VERTEX
  5
280
330
279
100
AcDbEntity
  8
3D-P-SANR-FIXT
100
AcDbVertex
100
AcDbPolyFaceMeshVertex
 10
-5.999999999999999
 20
-6.62499976158142
 30
24.0
 70
   192
  0
VERTEX
  5
281
330
279
100
AcDbEntity
  8
3D-P-SANR-FIXT
100
AcDbVertex
100
AcDbPolyFaceMeshVertex
 10
-6.99999976158142
 20
-0.0000000000009912
 30
27.0
 70
   192
  0
VERTEX
  5
282
330
279
100
AcDbEntity
  8
3D-P-SANR-FIXT
100
AcDbVertex
100
AcDbPolyFaceMeshVertex
 10
-7.77645707130432
 20
-0.0000000000009908
 30
26.89777851104736
 70
   192
  0
VERTEX
  5
283
330
279
100
AcDbEntity
  8
3D-P-SANR-FIXT
100
AcDbVertex
100
AcDbPolyFaceMeshVertex
 10
-8.499999761581419
 20
-0.0000000000009912
 30
26.5980749130249
 70
   192
  0
VERTEX
  5
284
330
279
100
AcDbEntity
  8
3D-P-SANR-FIXT
100
AcDbVertex
100
AcDbPolyFaceMeshVertex
 10
-9.121320247650144
 20
-0.0000000000009914
 30
26.12131977081299
 70
   192
  0
VERTEX
  5
285
330
279
100
AcDbEntity
  8
3D-P-SANR-FIXT
100
AcDbVertex
100
AcDbPolyFaceMeshVertex
 10
-9.598076105117796
 20
-0.0000000000009913
 30
25.5
 70
   192
  0
VERTEX
  5
286
330
279
100
AcDbEntity
  8
3D-P-SANR-FIXT
100
AcDbVertex
100
AcDbPolyFaceMeshVertex
 10
-9.897777557373045
 20
-0.0000000000009914
 30
24.77645587921142
 70
   192
  0
VERTEX
  5
287
330
279
100
AcDbEntity
  8
3D-P-SANR-FIXT
100
AcDbVertex
100
AcDbPolyFaceMeshVertex
 10
-9.999999761581419
 20
-0.0000000000009912
 30
24.0
 70
   192
  0
VERTEX
  5
288
330
279
100
AcDbEntity
  8
3D-P-SANR-FIXT
100
AcDbFaceRecord
 10
0.0
 20
0.0
 30
0.0
 70
   128
 71
    -6
 72
     8
 73
    -9
  0
VERTEX
  5
289
330
279
100
AcDbEntity
  8
3D-P-SANR-FIXT
100
AcDbFaceRecord
 10
0.0
 20
0.0
 30
0.0
 70
   128
 71
    -5
 72
     9
 73
   -10
  0
VERTEX
  5
28A
330
279
100
AcDbEntity
  8
3D-P-SANR-FIXT
100
AcDbFaceRecord
 10
0.0
 20
0.0
 30
0.0
 70
   128
 71
     7
 72
    -8
 73
     6
  0
VERTEX
  5
28B
330
279
100
AcDbEntity
  8
3D-P-SANR-FIXT
100
AcDbFaceRecord
 10
0.0
 20
0.0
 30
0.0
 70
   128
 71
     5
 72
    -6
 73
    -9
  0
VERTEX
  5
28C
330
279
100
AcDbEntity
  8
3D-P-SANR-FIXT
100
AcDbFaceRecord
 10
0.0
 20
0.0
 30
0.0
 70
   128
 71
     4
 72
    -5
 73
   -10
  0
VERTEX
  5
28D
330
279
100
AcDbEntity
  8
3D-P-SANR-FIXT
100
AcDbFaceRecord
 10
0.0
 20
0.0
 30
0.0
 70
   128
 71
    10
 72
   -11
 73
    -4
  0
VERTEX
  5
28E
330
279
100
AcDbEntity
  8
3D-P-SANR-FIXT
100
AcDbFaceRecord
 10
0.0
 20
0.0
 30
0.0
 70
   128
 71
    13
 72
   -14
 73
    -2
  0
VERTEX
  5
28F
330
279
100
AcDbEntity
  8
3D-P-SANR-FIXT
100
AcDbFaceRecord
 10
0.0
 20
0.0
 30
0.0
 70
   128
 71
     3
 72
    -4
 73
   -12
  0
VERTEX
  5
290
330
279
100
AcDbEntity
  8
3D-P-SANR-FIXT
100
AcDbFaceRecord
 10
0.0
 20
0.0
 30
0.0
 70
   128
 71
    12
 72
   -13
 73
    -3
  0
VERTEX
  5
291
330
279
100
AcDbEntity
  8
3D-P-SANR-FIXT
100
AcDbFaceRecord
 10
0.0
 20
0.0
 30
0.0
 70
   128
 71
    -3
 72
   -13
 73
     2
  0
VERTEX
  5
292
330
279
100
AcDbEntity
  8
3D-P-SANR-FIXT
100
AcDbFaceRecord
 10
0.0
 20
0.0
 30
0.0
 70
   128
 71
    14
 72
     1
 73
    -2
  0
VERTEX
  5
293
330
279
100
AcDbEntity
  8
3D-P-SANR-FIXT
100
AcDbFaceRecord
 10
0.0
 20
0.0
 30
0.0
 70
   128
 71
   -12
 72
    -4
 73
    11
  0
SEQEND
  5
294
330
279
100
AcDbEntity
  8
3D-P-SANR-FIXT
  0
POLYLINE
  5
295
330
AA
100
AcDbEntity
  8
3D-P-SANR-FIXT
100
AcDbPolyFaceMesh
 66
     1
 10
0.0
 20
0.0
 30
0.0
 70
    64
 71
    53
 72
    33
1001
REVIT
1002
{
1070
     4
1000
6241
1002
}
1002
{
1070
     2
1000
-2001160
1002
}
  0
VERTEX
  5
296
330
295
100
AcDbEntity
  8
3D-P-SANR-FIXT
100
AcDbVertex
100
AcDbPolyFaceMeshVertex
 10
-6.476993322372435
 20
-2.999999999999999
 30
22.9713978767395
 70
   192
  0
VERTEX
  5
297
330
295
100
AcDbEntity
  8
3D-P-SANR-FIXT
100
AcDbVertex
100
AcDbPolyFaceMeshVertex
 10
-6.593903303146361
 20
-2.999999999999999
 30
22.92491340637207
 70
   192
  0
VERTEX
  5
298
330
295
100
AcDbEntity
  8
3D-P-SANR-FIXT
100
AcDbVertex
100
AcDbPolyFaceMeshVertex
 10
-6.695508241653441
 20
-2.999999999999999
 30
22.85071849822998
 70
   192
  0
VERTEX
  5
299
330
295
100
AcDbEntity
  8
3D-P-SANR-FIXT
100
AcDbVertex
100
AcDbPolyFaceMeshVertex
 10
-6.775375843048094
 20
-2.999999999999999
 30
22.7535080909729
 70
   192
  0
VERTEX
  5
29A
330
295
100
AcDbEntity
  8
3D-P-SANR-FIXT
100
AcDbVertex
100
AcDbPolyFaceMeshVertex
 10
-6.828449249267577
 20
-2.999999999999999
 30
22.63943767547607
 70
   192
  0
VERTEX
  5
29B
330
295
100
AcDbEntity
  8
3D-P-SANR-FIXT
100
AcDbVertex
100
AcDbPolyFaceMeshVertex
 10
-6.851367473602294
 20
-2.999999999999999
 30
22.51573133468628
 70
   192
  0
VERTEX
  5
29C
330
295
100
AcDbEntity
  8
3D-P-SANR-FIXT
100
AcDbVertex
100
AcDbPolyFaceMeshVertex
 10
-6.852242946624754
 20
-2.999999999999999
 30
19.37173604965209
 70
   192
  0
VERTEX
  5
29D
330
295
100
AcDbEntity
  8
3D-P-SANR-FIXT
100
AcDbVertex
100
AcDbPolyFaceMeshVertex
 10
-6.496958971023558
 20
-2.999999999999999
 30
16.24788093566894
 70
   192
  0
VERTEX
  5
29E
330
295
100
AcDbEntity
  8
3D-P-SANR-FIXT
100
AcDbVertex
100
AcDbPolyFaceMeshVertex
 10
-5.790088176727294
 20
-2.999999999999999
 30
13.18438053131103
 70
   192
  0
VERTEX
  5
29F
330
295
100
AcDbEntity
  8
3D-P-SANR-FIXT
100
AcDbVertex
100
AcDbPolyFaceMeshVertex
 10
-5.169682145118712
 20
-2.999999999999999
 30
11.76572442054748
 70
   192
  0
VERTEX
  5
2A0
330
295
100
AcDbEntity
  8
3D-P-SANR-FIXT
100
AcDbVertex
100
AcDbPolyFaceMeshVertex
 10
-4.208507895469664
 20
-2.999999999999999
 30
10.55179166793823
 70
   192
  0
VERTEX
  5
2A1
330
295
100
AcDbEntity
  8
3D-P-SANR-FIXT
100
AcDbVertex
100
AcDbPolyFaceMeshVertex
 10
-2.969923317432403
 20
-2.999999999999999
 30
9.622600793838499
 70
   192
  0
VERTEX
  5
2A2
330
295
100
AcDbEntity
  8
3D-P-SANR-FIXT
100
AcDbVertex
100
AcDbPolyFaceMeshVertex
 10
-1.535571455955505
 20
-2.999999999999999
 30
9.039399862289426
 70
   192
  0
VERTEX
  5
2A3
330
295
100
AcDbEntity
  8
3D-P-SANR-FIXT
100
AcDbVertex
100
AcDbPolyFaceMeshVertex
 10
0.0000000000003388
 20
-2.999999999999999
 30
8.840632438659666
 70
   192
  0
VERTEX
  5
2A4
330
295
100
AcDbEntity
  8
3D-P-SANR-FIXT
100
AcDbVertex
100
AcDbPolyFaceMeshVertex
 10
1.535571455955505
 20
-2.999999999999999
 30
9.039399862289426
 70
   192
  0
VERTEX
  5
2A5
330
295
100
AcDbEntity
  8
3D-P-SANR-FIXT
100
AcDbVertex
100
AcDbPolyFaceMeshVertex
 10
2.969923317432403
 20
-2.999999999999999
 30
9.622600793838499
 70
   192
  0
VERTEX
  5
2A6
330
295
100
AcDbEntity
  8
3D-P-SANR-FIXT
100
AcDbVertex
100
AcDbPolyFaceMeshVertex
 10
4.208507895469664
 20
-2.999999999999999
 30
10.55179166793823
 70
   192
  0
VERTEX
  5
2A7
330
295
100
AcDbEntity
  8
3D-P-SANR-FIXT
100
AcDbVertex
100
AcDbPolyFaceMeshVertex
 10
5.169682145118712
 20
-2.999999999999999
 30
11.76572442054748
 70
   192
  0
VERTEX
  5
2A8
330
295
100
AcDbEntity
  8
3D-P-SANR-FIXT
100
AcDbVertex
100
AcDbPolyFaceMeshVertex
 10
5.790088176727294
 20
-2.999999999999999
 30
13.18438053131103
 70
   192
  0
VERTEX
  5
2A9
330
295
100
AcDbEntity
  8
3D-P-SANR-FIXT
100
AcDbVertex
100
AcDbPolyFaceMeshVertex
 10
6.496958971023558
 20
-2.999999999999999
 30
16.24788093566894
 70
   192
  0
VERTEX
  5
2AA
330
295
100
AcDbEntity
  8
3D-P-SANR-FIXT
100
AcDbVertex
100
AcDbPolyFaceMeshVertex
 10
6.852242946624754
 20
-2.999999999999999
 30
19.37173604965209
 70
   192
  0
VERTEX
  5
2AB
330
295
100
AcDbEntity
  8
3D-P-SANR-FIXT
100
AcDbVertex
100
AcDbPolyFaceMeshVertex
 10
6.851367473602294
 20
-2.999999999999999
 30
22.51573133468628
 70
   192
  0
VERTEX
  5
2AC
330
295
100
AcDbEntity
  8
3D-P-SANR-FIXT
100
AcDbVertex
100
AcDbPolyFaceMeshVertex
 10
6.828449249267577
 20
-2.999999999999999
 30
22.63943767547607
 70
   192
  0
VERTEX
  5
2AD
330
295
100
AcDbEntity
  8
3D-P-SANR-FIXT
100
AcDbVertex
100
AcDbPolyFaceMeshVertex
 10
6.775375843048094
 20
-2.999999999999999
 30
22.7535080909729
 70
   192
  0
VERTEX
  5
2AE
330
295
100
AcDbEntity
  8
3D-P-SANR-FIXT
100
AcDbVertex
100
AcDbPolyFaceMeshVertex
 10
6.695508241653441
 20
-2.999999999999999
 30
22.85071849822998
 70
   192
  0
VERTEX
  5
2AF
330
295
100
AcDbEntity
  8
3D-P-SANR-FIXT
100
AcDbVertex
100
AcDbPolyFaceMeshVertex
 10
6.593903303146361
 20
-2.999999999999999
 30
22.92491340637207
 70
   192
  0
VERTEX
  5
2B0
330
295
100
AcDbEntity
  8
3D-P-SANR-FIXT
100
AcDbVertex
100
AcDbPolyFaceMeshVertex
 10
6.476993322372435
 20
-2.999999999999999
 30
22.9713978767395
 70
   192
  0
VERTEX
  5
2B1
330
295
100
AcDbEntity
  8
3D-P-SANR-FIXT
100
AcDbVertex
100
AcDbPolyFaceMeshVertex
 10
6.352181196212767
 20
-2.999999999999999
 30
22.98722648620605
 70
   192
  0
VERTEX
  5
2B2
330
295
100
AcDbEntity
  8
3D-P-SANR-FIXT
100
AcDbVertex
100
AcDbPolyFaceMeshVertex
 10
-6.352181196212767
 20
-2.999999999999999
 30
22.98722648620605
 70
   192
  0
VERTEX
  5
2B3
330
295
100
AcDbEntity
  8
3D-P-SANR-FIXT
100
AcDbVertex
100
AcDbPolyFaceMeshVertex
 10
-0.9659257829189298
 20
-2.999999999999999
 30
11.00881934165954
 70
   192
  0
VERTEX
  5
2B4
330
295
100
AcDbEntity
  8
3D-P-SANR-FIXT
100
AcDbVertex
100
AcDbPolyFaceMeshVertex
 10
-0.866025388240814
 20
-2.999999999999999
 30
11.25
 70
   192
  0
VERTEX
  5
2B5
330
295
100
AcDbEntity
  8
3D-P-SANR-FIXT
100
AcDbVertex
100
AcDbPolyFaceMeshVertex
 10
-0.7071067839860916
 20
-2.999999999999999
 30
11.45710659027099
 70
   192
  0
VERTEX
  5
2B6
330
295
100
AcDbEntity
  8
3D-P-SANR-FIXT
100
AcDbVertex
100
AcDbPolyFaceMeshVertex
 10
-0.5000000149011611
 20
-2.999999999999999
 30
11.61602568626403
 70
   192
  0
VERTEX
  5
2B7
330
295
100
AcDbEntity
  8
3D-P-SANR-FIXT
100
AcDbVertex
100
AcDbPolyFaceMeshVertex
 10
-0.258819043636322
 20
-2.999999999999999
 30
11.71592617034912
 70
   192
  0
VERTEX
  5
2B8
330
295
100
AcDbEntity
  8
3D-P-SANR-FIXT
100
AcDbVertex
100
AcDbPolyFaceMeshVertex
 10
0.0000000000016328
 20
-2.999999999999999
 30
11.75000023841858
 70
   192
  0
VERTEX
  5
2B9
330
295
100
AcDbEntity
  8
3D-P-SANR-FIXT
100
AcDbVertex
100
AcDbPolyFaceMeshVertex
 10
0.258819043636322
 20
-2.999999999999999
 30
11.71592617034912
 70
   192
  0
VERTEX
  5
2BA
330
295
100
AcDbEntity
  8
3D-P-SANR-FIXT
100
AcDbVertex
100
AcDbPolyFaceMeshVertex
 10
0.5000000149011611
 20
-2.999999999999999
 30
11.61602568626403
 70
   192
  0
VERTEX
  5
2BB
330
295
100
AcDbEntity
  8
3D-P-SANR-FIXT
100
AcDbVertex
100
AcDbPolyFaceMeshVertex
 10
0.7071067839860916
 20
-2.999999999999999
 30
11.45710659027099
 70
   192
  0
VERTEX
  5
2BC
330
295
100
AcDbEntity
  8
3D-P-SANR-FIXT
100
AcDbVertex
100
AcDbPolyFaceMeshVertex
 10
0.866025388240814
 20
-2.999999999999999
 30
11.25
 70
   192
  0
VERTEX
  5
2BD
330
295
100
AcDbEntity
  8
3D-P-SANR-FIXT
100
AcDbVertex
100
AcDbPolyFaceMeshVertex
 10
0.9659257829189298
 20
-2.999999999999999
 30
11.00881934165954
 70
   192
  0
VERTEX
  5
2BE
330
295
100
AcDbEntity
  8
3D-P-SANR-FIXT
100
AcDbVertex
100
AcDbPolyFaceMeshVertex
 10
1.000000029802322
 20
-2.999999999999999
 30
10.74999976158142
 70
   192
  0
VERTEX
  5
2BF
330
295
100
AcDbEntity
  8
3D-P-SANR-FIXT
100
AcDbVertex
100
AcDbPolyFaceMeshVertex
 10
0.9659257829189298
 20
-2.999999999999999
 30
10.49118089675903
 70
   192
  0
VERTEX
  5
2C0
330
295
100
AcDbEntity
  8
3D-P-SANR-FIXT
100
AcDbVertex
100
AcDbPolyFaceMeshVertex
 10
0.866025388240814
 20
-2.999999999999999
 30
10.25000023841857
 70
   192
  0
VERTEX
  5
2C1
330
295
100
AcDbEntity
  8
3D-P-SANR-FIXT
100
AcDbVertex
100
AcDbPolyFaceMeshVertex
 10
0.7071067839860916
 20
-2.999999999999999
 30
10.04289293289184
 70
   192
  0
VERTEX
  5
2C2
330
295
100
AcDbEntity
  8
3D-P-SANR-FIXT
100
AcDbVertex
100
AcDbPolyFaceMeshVertex
 10
0.5000000149011611
 20
-2.999999999999999
 30
9.883974552154539
 70
   192
  0
VERTEX
  5
2C3
330
295
100
AcDbEntity
  8
3D-P-SANR-FIXT
100
AcDbVertex
100
AcDbPolyFaceMeshVertex
 10
0.258819043636322
 20
-2.999999999999999
 30
9.784074068069456
 70
   192
  0
VERTEX
  5
2C4
330
295
100
AcDbEntity
  8
3D-P-SANR-FIXT
100
AcDbVertex
100
AcDbPolyFaceMeshVertex
 10
0.0000000000016408
 20
-2.999999999999999
 30
9.749999999999998
 70
   192
  0
VERTEX
  5
2C5
330
295
100
AcDbEntity
  8
3D-P-SANR-FIXT
100
AcDbVertex
100
AcDbPolyFaceMeshVertex
 10
-0.258819043636322
 20
-2.999999999999999
 30
9.784074068069456
 70
   192
  0
VERTEX
  5
2C6
330
295
100
AcDbEntity
  8
3D-P-SANR-FIXT
100
AcDbVertex
100
AcDbPolyFaceMeshVertex
 10
-0.5000000149011611
 20
-2.999999999999999
 30
9.883974552154539
 70
   192
  0
VERTEX
  5
2C7
330
295
100
AcDbEntity
  8
3D-P-SANR-FIXT
100
AcDbVertex
100
AcDbPolyFaceMeshVertex
 10
-0.7071067839860916
 20
-2.999999999999999
 30
10.04289293289184
 70
   192
  0
VERTEX
  5
2C8
330
295
100
AcDbEntity
  8
3D-P-SANR-FIXT
100
AcDbVertex
100
AcDbPolyFaceMeshVertex
 10
-0.866025388240814
 20
-2.999999999999999
 30
10.25000023841857
 70
   192
  0
VERTEX
  5
2C9
330
295
100
AcDbEntity
  8
3D-P-SANR-FIXT
100
AcDbVertex
100
AcDbPolyFaceMeshVertex
 10
-0.9659257829189298
 20
-2.999999999999999
 30
10.49118089675903
 70
   192
  0
VERTEX
  5
2CA
330
295
100
AcDbEntity
  8
3D-P-SANR-FIXT
100
AcDbVertex
100
AcDbPolyFaceMeshVertex
 10
-1.000000029802322
 20
-2.999999999999999
 30
10.74999976158142
 70
   192
  0
VERTEX
  5
2CB
330
295
100
AcDbEntity
  8
3D-P-SANR-FIXT
100
AcDbFaceRecord
 10
0.0
 20
0.0
 30
0.0
 70
   128
 71
   -14
 72
    46
 73
   -45
 74
    15
  0
VERTEX
  5
2CC
330
295
100
AcDbEntity
  8
3D-P-SANR-FIXT
100
AcDbFaceRecord
 10
0.0
 20
0.0
 30
0.0
 70
   128
 71
    47
 72
   -46
 73
   -14
  0
VERTEX
  5
2CD
330
295
100
AcDbEntity
  8
3D-P-SANR-FIXT
100
AcDbFaceRecord
 10
0.0
 20
0.0
 30
0.0
 70
   128
 71
   -14
 72
    48
 73
   -47
  0
VERTEX
  5
2CE
330
295
100
AcDbEntity
  8
3D-P-SANR-FIXT
100
AcDbFaceRecord
 10
0.0
 20
0.0
 30
0.0
 70
   128
 71
    49
 72
   -48
 73
    14
 74
   -13
  0
VERTEX
  5
2CF
330
295
100
AcDbEntity
  8
3D-P-SANR-FIXT
100
AcDbFaceRecord
 10
0.0
 20
0.0
 30
0.0
 70
   128
 71
   -15
 72
    43
 73
   -42
 74
    16
  0
VERTEX
  5
2D0
330
295
100
AcDbEntity
  8
3D-P-SANR-FIXT
100
AcDbFaceRecord
 10
0.0
 20
0.0
 30
0.0
 70
   128
 71
   -41
 72
   -16
 73
    42
  0
VERTEX
  5
2D1
330
295
100
AcDbEntity
  8
3D-P-SANR-FIXT
100
AcDbFaceRecord
 10
0.0
 20
0.0
 30
0.0
 70
   128
 71
   -15
 72
    44
 73
   -43
  0
VERTEX
  5
2D2
330
295
100
AcDbEntity
  8
3D-P-SANR-FIXT
100
AcDbFaceRecord
 10
0.0
 20
0.0
 30
0.0
 70
   128
 71
   -44
 72
   -15
 73
    45
  0
VERTEX
  5
2D3
330
295
100
AcDbEntity
  8
3D-P-SANR-FIXT
100
AcDbFaceRecord
 10
0.0
 20
0.0
 30
0.0
 70
   128
 71
   -16
 72
    41
 73
   -40
 74
    17
  0
VERTEX
  5
2D4
330
295
100
AcDbEntity
  8
3D-P-SANR-FIXT
100
AcDbFaceRecord
 10
0.0
 20
0.0
 30
0.0
 70
   128
 71
    52
 72
   -51
 73
    13
 74
   -12
  0
VERTEX
  5
2D5
330
295
100
AcDbEntity
  8
3D-P-SANR-FIXT
100
AcDbFaceRecord
 10
0.0
 20
0.0
 30
0.0
 70
   128
 71
   -13
 72
    51
 73
   -50
  0
VERTEX
  5
2D6
330
295
100
AcDbEntity
  8
3D-P-SANR-FIXT
100
AcDbFaceRecord
 10
0.0
 20
0.0
 30
0.0
 70
   128
 71
    12
 72
   -11
 73
    30
 74
   -53
  0
VERTEX
  5
2D7
330
295
100
AcDbEntity
  8
3D-P-SANR-FIXT
100
AcDbFaceRecord
 10
0.0
 20
0.0
 30
0.0
 70
   128
 71
    53
 72
   -52
 73
   -12
  0
VERTEX
  5
2D8
330
295
100
AcDbEntity
  8
3D-P-SANR-FIXT
100
AcDbFaceRecord
 10
0.0
 20
0.0
 30
0.0
 70
   128
 71
   -49
 72
   -13
 73
    50
  0
VERTEX
  5
2D9
330
295
100
AcDbEntity
  8
3D-P-SANR-FIXT
100
AcDbFaceRecord
 10
0.0
 20
0.0
 30
0.0
 70
   128
 71
    -9
 72
    33
 73
   -32
 74
    10
  0
VERTEX
  5
2DA
330
295
100
AcDbEntity
  8
3D-P-SANR-FIXT
100
AcDbFaceRecord
 10
0.0
 20
0.0
 30
0.0
 70
   128
 71
    11
 72
   -10
 73
    31
 74
   -30
  0
VERTEX
  5
2DB
330
295
100
AcDbEntity
  8
3D-P-SANR-FIXT
100
AcDbFaceRecord
 10
0.0
 20
0.0
 30
0.0
 70
   128
 71
   -31
 72
   -10
 73
    32
  0
VERTEX
  5
2DC
330
295
100
AcDbEntity
  8
3D-P-SANR-FIXT
100
AcDbFaceRecord
 10
0.0
 20
0.0
 30
0.0
 70
   128
 71
   -33
 72
     9
 73
    -8
 74
    34
  0
VERTEX
  5
2DD
330
295
100
AcDbEntity
  8
3D-P-SANR-FIXT
100
AcDbFaceRecord
 10
0.0
 20
0.0
 30
0.0
 70
   128
 71
   -18
 72
    39
 73
   -38
 74
    19
  0
VERTEX
  5
2DE
330
295
100
AcDbEntity
  8
3D-P-SANR-FIXT
100
AcDbFaceRecord
 10
0.0
 20
0.0
 30
0.0
 70
   128
 71
   -39
 72
    18
 73
   -17
 74
    40
  0
VERTEX
  5
2DF
330
295
100
AcDbEntity
  8
3D-P-SANR-FIXT
100
AcDbFaceRecord
 10
0.0
 20
0.0
 30
0.0
 70
   128
 71
    20
 72
   -19
 73
    37
 74
   -36
  0
VERTEX
  5
2E0
330
295
100
AcDbEntity
  8
3D-P-SANR-FIXT
100
AcDbFaceRecord
 10
0.0
 20
0.0
 30
0.0
 70
   128
 71
    21
 72
   -20
 73
   -35
 74
    -7
  0
VERTEX
  5
2E1
330
295
100
AcDbEntity
  8
3D-P-SANR-FIXT
100
AcDbFaceRecord
 10
0.0
 20
0.0
 30
0.0
 70
   128
 71
    23
 72
   -22
 73
    26
 74
   -25
  0
VERTEX
  5
2E2
330
295
100
AcDbEntity
  8
3D-P-SANR-FIXT
100
AcDbFaceRecord
 10
0.0
 20
0.0
 30
0.0
 70
   128
 71
    24
 72
   -23
 73
    25
  0
VERTEX
  5
2E3
330
295
100
AcDbEntity
  8
3D-P-SANR-FIXT
100
AcDbFaceRecord
 10
0.0
 20
0.0
 30
0.0
 70
   128
 71
   -22
 72
    28
 73
    27
 74
   -26
  0
VERTEX
  5
2E4
330
295
100
AcDbEntity
  8
3D-P-SANR-FIXT
100
AcDbFaceRecord
 10
0.0
 20
0.0
 30
0.0
 70
   128
 71
   -28
 72
    22
 73
   -21
 74
    -7
  0
VERTEX
  5
2E5
330
295
100
AcDbEntity
  8
3D-P-SANR-FIXT
100
AcDbFaceRecord
 10
0.0
 20
0.0
 30
0.0
 70
   128
 71
    35
 72
   -34
 73
     8
 74
    -7
  0
VERTEX
  5
2E6
330
295
100
AcDbEntity
  8
3D-P-SANR-FIXT
100
AcDbFaceRecord
 10
0.0
 20
0.0
 30
0.0
 70
   128
 71
   -35
 72
   -20
 73
    36
  0
VERTEX
  5
2E7
330
295
100
AcDbEntity
  8
3D-P-SANR-FIXT
100
AcDbFaceRecord
 10
0.0
 20
0.0
 30
0.0
 70
   128
 71
   -37
 72
   -19
 73
    38
  0
VERTEX
  5
2E8
330
295
100
AcDbEntity
  8
3D-P-SANR-FIXT
100
AcDbFaceRecord
 10
0.0
 20
0.0
 30
0.0
 70
   128
 71
    -6
 72
     1
 73
   -29
 74
     7
  0
VERTEX
  5
2E9
330
295
100
AcDbEntity
  8
3D-P-SANR-FIXT
100
AcDbFaceRecord
 10
0.0
 20
0.0
 30
0.0
 70
   128
 71
    -5
 72
     2
 73
    -1
 74
     6
  0
VERTEX
  5
2EA
330
295
100
AcDbEntity
  8
3D-P-SANR-FIXT
100
AcDbFaceRecord
 10
0.0
 20
0.0
 30
0.0
 70
   128
 71
    -2
 72
     5
 73
     4
 74
     3
  0
VERTEX
  5
2EB
330
295
100
AcDbEntity
  8
3D-P-SANR-FIXT
100
AcDbFaceRecord
 10
0.0
 20
0.0
 30
0.0
 70
   128
 71
    29
 72
   -28
 73
    -7
  0
SEQEND
  5
2EC
330
295
100
AcDbEntity
  8
3D-P-SANR-FIXT
  0
POLYLINE
  5
2ED
330
AA
100
AcDbEntity
  8
3D-P-SANR-FIXT
100
AcDbPolyFaceMesh
 66
     1
 10
0.0
 20
0.0
 30
0.0
 70
    64
 71
    22
 72
    24
1001
REVIT
1002
{
1070
     4
1000
6241
1002
}
1002
{
1070
     2
1000
-2001160
1002
}
  0
VERTEX
  5
2EE
330
2ED
100
AcDbEntity
  8
3D-P-SANR-FIXT
100
AcDbVertex
100
AcDbPolyFaceMeshVertex
 10
-6.728691101074217
 20
0.0000000000013652
 30
24.0
 70
   192
  0
VERTEX
  5
2EF
330
2ED
100
AcDbEntity
  8
3D-P-SANR-FIXT
100
AcDbVertex
100
AcDbPolyFaceMeshVertex
 10
-7.022171974182128
 20
-0.0000000000009912
 30
23.940194606781
 70
   192
  0
VERTEX
  5
2F0
330
2ED
100
AcDbEntity
  8
3D-P-SANR-FIXT
100
AcDbVertex
100
AcDbPolyFaceMeshVertex
 10
-7.268850088119505
 20
-0.0000000000009912
 30
23.77031564712524
 70
   192
  0
VERTEX
  5
2F1
330
2ED
100
AcDbEntity
  8
3D-P-SANR-FIXT
100
AcDbVertex
100
AcDbPolyFaceMeshVertex
 10
-7.429381370544432
 20
-0.0000000000009912
 30
23.51745700836181
 70
   192
  0
VERTEX
  5
2F2
330
2ED
100
AcDbEntity
  8
3D-P-SANR-FIXT
100
AcDbVertex
100
AcDbPolyFaceMeshVertex
 10
-7.478153228759764
 20
-0.0000000000009913
 30
23.2216157913208
 70
   192
  0
VERTEX
  5
2F3
330
2ED
100
AcDbEntity
  8
3D-P-SANR-FIXT
100
AcDbVertex
100
AcDbPolyFaceMeshVertex
 10
-6.851367473602294
 20
-2.999999999999999
 30
22.51573133468628
 70
   192
  0
VERTEX
  5
2F4
330
2ED
100
AcDbEntity
  8
3D-P-SANR-FIXT
100
AcDbVertex
100
AcDbPolyFaceMeshVertex
 10
-6.828449249267577
 20
-2.999999999999999
 30
22.63943767547607
 70
   192
  0
VERTEX
  5
2F5
330
2ED
100
AcDbEntity
  8
3D-P-SANR-FIXT
100
AcDbVertex
100
AcDbPolyFaceMeshVertex
 10
-6.775375843048094
 20
-2.999999999999999
 30
22.7535080909729
 70
   192
  0
VERTEX
  5
2F6
330
2ED
100
AcDbEntity
  8
3D-P-SANR-FIXT
100
AcDbVertex
100
AcDbPolyFaceMeshVertex
 10
-6.695508241653441
 20
-2.999999999999999
 30
22.85071849822998
 70
   192
  0
VERTEX
  5
2F7
330
2ED
100
AcDbEntity
  8
3D-P-SANR-FIXT
100
AcDbVertex
100
AcDbPolyFaceMeshVertex
 10
-6.593903303146361
 20
-2.999999999999999
 30
22.92491340637207
 70
   192
  0
VERTEX
  5
2F8
330
2ED
100
AcDbEntity
  8
3D-P-SANR-FIXT
100
AcDbVertex
100
AcDbPolyFaceMeshVertex
 10
-6.476993322372435
 20
-2.999999999999999
 30
22.9713978767395
 70
   192
  0
VERTEX
  5
2F9
330
2ED
100
AcDbEntity
  8
3D-P-SANR-FIXT
100
AcDbVertex
100
AcDbPolyFaceMeshVertex
 10
-6.352181196212767
 20
-2.999999999999999
 30
22.98722648620605
 70
   192
  0
VERTEX
  5
2FA
330
2ED
100
AcDbEntity
  8
3D-P-SANR-FIXT
100
AcDbVertex
100
AcDbPolyFaceMeshVertex
 10
-6.561028003692626
 20
-1.335924804210662
 30
23.54900407791137
 70
   192
  0
VERTEX
  5
2FB
330
2ED
100
AcDbEntity
  8
3D-P-SANR-FIXT
100
AcDbVertex
100
AcDbPolyFaceMeshVertex
 10
-6.920753002166747
 20
-1.500364780426025
 30
23.36426639556885
 70
   192
  0
VERTEX
  5
2FC
330
2ED
100
AcDbEntity
  8
3D-P-SANR-FIXT
100
AcDbVertex
100
AcDbPolyFaceMeshVertex
 10
-7.199040412902831
 20
-1.335924893617629
 30
22.90727949142456
 70
   192
  0
VERTEX
  5
2FD
330
2ED
100
AcDbEntity
  8
3D-P-SANR-FIXT
100
AcDbVertex
100
AcDbPolyFaceMeshVertex
 10
-6.926873445510863
 20
-0.0000000000002261
 30
23.9596152305603
 70
   192
  0
VERTEX
  5
2FE
330
2ED
100
AcDbEntity
  8
3D-P-SANR-FIXT
100
AcDbVertex
100
AcDbPolyFaceMeshVertex
 10
-6.741816759109496
 20
-1.502843499183654
 30
23.45915508270263
 70
   192
  0
VERTEX
  5
2FF
330
2ED
100
AcDbEntity
  8
3D-P-SANR-FIXT
100
AcDbVertex
100
AcDbPolyFaceMeshVertex
 10
-7.445254325866698
 20
-0.0000000000009912
 30
23.42117500305175
 70
   192
  0
VERTEX
  5
300
330
2ED
100
AcDbEntity
  8
3D-P-SANR-FIXT
100
AcDbVertex
100
AcDbPolyFaceMeshVertex
 10
-7.130889415740965
 20
-1.502852618694305
 30
23.06973552703857
 70
   192
  0
VERTEX
  5
301
330
2ED
100
AcDbEntity
  8
3D-P-SANR-FIXT
100
AcDbVertex
100
AcDbPolyFaceMeshVertex
 10
-7.3491153717041
 20
-0.0000000000009912
 30
23.64388561248779
 70
   192
  0
VERTEX
  5
302
330
2ED
100
AcDbEntity
  8
3D-P-SANR-FIXT
100
AcDbVertex
100
AcDbPolyFaceMeshVertex
 10
-7.019290924072264
 20
-1.584616363048553
 30
23.22391319274902
 70
   192
  0
VERTEX
  5
303
330
2ED
100
AcDbEntity
  8
3D-P-SANR-FIXT
100
AcDbVertex
100
AcDbPolyFaceMeshVertex
 10
-7.145510673522948
 20
-0.0000000000009912
 30
23.85525512695312
 70
   192
  0
VERTEX
  5
304
330
2ED
100
AcDbEntity
  8
3D-P-SANR-FIXT
100
AcDbFaceRecord
 10
0.0
 20
0.0
 30
0.0
 70
   128
 71
    -3
 72
   -21
 73
    20
  0
VERTEX
  5
305
330
2ED
100
AcDbEntity
  8
3D-P-SANR-FIXT
100
AcDbFaceRecord
 10
0.0
 20
0.0
 30
0.0
 70
   128
 71
    -8
 72
   -19
 73
   -21
  0
VERTEX
  5
306
330
2ED
100
AcDbEntity
  8
3D-P-SANR-FIXT
100
AcDbFaceRecord
 10
0.0
 20
0.0
 30
0.0
 70
   128
 71
   -14
 72
   -22
 73
   -17
  0
VERTEX
  5
307
330
2ED
100
AcDbEntity
  8
3D-P-SANR-FIXT
100
AcDbFaceRecord
 10
0.0
 20
0.0
 30
0.0
 70
   128
 71
     2
 72
   -16
 73
   -17
  0
VERTEX
  5
308
330
2ED
100
AcDbEntity
  8
3D-P-SANR-FIXT
100
AcDbFaceRecord
 10
0.0
 20
0.0
 30
0.0
 70
   128
 71
    13
 72
    12
 73
   -11
  0
VERTEX
  5
309
330
2ED
100
AcDbEntity
  8
3D-P-SANR-FIXT
100
AcDbFaceRecord
 10
0.0
 20
0.0
 30
0.0
 70
   128
 71
    16
 72
     1
 73
   -13
  0
VERTEX
  5
30A
330
2ED
100
AcDbEntity
  8
3D-P-SANR-FIXT
100
AcDbFaceRecord
 10
0.0
 20
0.0
 30
0.0
 70
   128
 71
   -13
 72
   -11
 73
   -17
  0
VERTEX
  5
30B
330
2ED
100
AcDbEntity
  8
3D-P-SANR-FIXT
100
AcDbFaceRecord
 10
0.0
 20
0.0
 30
0.0
 70
   128
 71
    10
 72
    -9
 73
   -14
  0
VERTEX
  5
30C
330
2ED
100
AcDbEntity
  8
3D-P-SANR-FIXT
100
AcDbFaceRecord
 10
0.0
 20
0.0
 30
0.0
 70
   128
 71
   -14
 72
   -21
 73
    -3
  0
VERTEX
  5
30D
330
2ED
100
AcDbEntity
  8
3D-P-SANR-FIXT
100
AcDbFaceRecord
 10
0.0
 20
0.0
 30
0.0
 70
   128
 71
    -9
 72
   -21
 73
   -14
  0
VERTEX
  5
30E
330
2ED
100
AcDbEntity
  8
3D-P-SANR-FIXT
100
AcDbFaceRecord
 10
0.0
 20
0.0
 30
0.0
 70
   128
 71
   -21
 72
     9
 73
    -8
  0
VERTEX
  5
30F
330
2ED
100
AcDbEntity
  8
3D-P-SANR-FIXT
100
AcDbFaceRecord
 10
0.0
 20
0.0
 30
0.0
 70
   128
 71
    15
 72
     5
 73
   -18
  0
VERTEX
  5
310
330
2ED
100
AcDbEntity
  8
3D-P-SANR-FIXT
100
AcDbFaceRecord
 10
0.0
 20
0.0
 30
0.0
 70
   128
 71
   -17
 72
   -10
 73
   -14
  0
VERTEX
  5
311
330
2ED
100
AcDbEntity
  8
3D-P-SANR-FIXT
100
AcDbFaceRecord
 10
0.0
 20
0.0
 30
0.0
 70
   128
 71
   -19
 72
     8
 73
    -7
  0
VERTEX
  5
312
330
2ED
100
AcDbEntity
  8
3D-P-SANR-FIXT
100
AcDbFaceRecord
 10
0.0
 20
0.0
 30
0.0
 70
   128
 71
   -19
 72
    18
 73
    -4
  0
VERTEX
  5
313
330
2ED
100
AcDbEntity
  8
3D-P-SANR-FIXT
100
AcDbFaceRecord
 10
0.0
 20
0.0
 30
0.0
 70
   128
 71
   -17
 72
    11
 73
   -10
  0
VERTEX
  5
314
330
2ED
100
AcDbEntity
  8
3D-P-SANR-FIXT
100
AcDbFaceRecord
 10
0.0
 20
0.0
 30
0.0
 70
   128
 71
   -13
 72
   -17
 73
   -16
  0
VERTEX
  5
315
330
2ED
100
AcDbEntity
  8
3D-P-SANR-FIXT
100
AcDbFaceRecord
 10
0.0
 20
0.0
 30
0.0
 70
   128
 71
   -15
 72
   -18
 73
   -19
  0
VERTEX
  5
316
330
2ED
100
AcDbEntity
  8
3D-P-SANR-FIXT
100
AcDbFaceRecord
 10
0.0
 20
0.0
 30
0.0
 70
   128
 71
     7
 72
     6
 73
   -15
  0
VERTEX
  5
317
330
2ED
100
AcDbEntity
  8
3D-P-SANR-FIXT
100
AcDbFaceRecord
 10
0.0
 20
0.0
 30
0.0
 70
   128
 71
     4
 72
   -20
 73
   -19
  0
VERTEX
  5
318
330
2ED
100
AcDbEntity
  8
3D-P-SANR-FIXT
100
AcDbFaceRecord
 10
0.0
 20
0.0
 30
0.0
 70
   128
 71
    -7
 72
   -15
 73
   -19
  0
VERTEX
  5
319
330
2ED
100
AcDbEntity
  8
3D-P-SANR-FIXT
100
AcDbFaceRecord
 10
0.0
 20
0.0
 30
0.0
 70
   128
 71
   -20
 72
   -21
 73
   -19
  0
VERTEX
  5
31A
330
2ED
100
AcDbEntity
  8
3D-P-SANR-FIXT
100
AcDbFaceRecord
 10
0.0
 20
0.0
 30
0.0
 70
   128
 71
    -2
 72
   -17
 73
    22
  0
VERTEX
  5
31B
330
2ED
100
AcDbEntity
  8
3D-P-SANR-FIXT
100
AcDbFaceRecord
 10
0.0
 20
0.0
 30
0.0
 70
   128
 71
   -14
 72
     3
 73
   -22
  0
SEQEND
  5
31C
330
2ED
100
AcDbEntity
  8
3D-P-SANR-FIXT
  0
POLYLINE
  5
31D
330
AA
100
AcDbEntity
  8
3D-P-SANR-FIXT
100
AcDbPolyFaceMesh
 66
     1
 10
0.0
 20
0.0
 30
0.0
 70
    64
 71
    13
 72
    11
1001
REVIT
1002
{
1070
     4
1000
6241
1002
}
1002
{
1070
     2
1000
-2001160
1002
}
  0
VERTEX
  5
31E
330
31D
100
AcDbEntity
  8
3D-P-SANR-FIXT
100
AcDbVertex
100
AcDbPolyFaceMeshVertex
 10
-7.478153228759764
 20
0.0000000000014267
 30
23.2216157913208
 70
   192
  0
VERTEX
  5
31F
330
31D
100
AcDbEntity
  8
3D-P-SANR-FIXT
100
AcDbVertex
100
AcDbPolyFaceMeshVertex
 10
-7.347665548324584
 20
-0.0000000000009912
 30
21.1745982170105
 70
   192
  0
VERTEX
  5
320
330
31D
100
AcDbEntity
  8
3D-P-SANR-FIXT
100
AcDbVertex
100
AcDbPolyFaceMeshVertex
 10
-7.11175489425659
 20
-0.0000000000009912
 30
19.137056350708
 70
   192
  0
VERTEX
  5
321
330
31D
100
AcDbEntity
  8
3D-P-SANR-FIXT
100
AcDbVertex
100
AcDbPolyFaceMeshVertex
 10
-6.771052122116087
 20
-0.0000000000009912
 30
17.11441326141357
 70
   192
  0
VERTEX
  5
322
330
31D
100
AcDbEntity
  8
3D-P-SANR-FIXT
100
AcDbVertex
100
AcDbPolyFaceMeshVertex
 10
-6.326465606689452
 20
-0.0000000000009912
 30
15.11205053329467
 70
   192
  0
VERTEX
  5
323
330
31D
100
AcDbEntity
  8
3D-P-SANR-FIXT
100
AcDbVertex
100
AcDbPolyFaceMeshVertex
 10
-5.779220938682555
 20
-0.0000000000009911
 30
13.1354284286499
 70
   192
  0
VERTEX
  5
324
330
31D
100
AcDbEntity
  8
3D-P-SANR-FIXT
100
AcDbVertex
100
AcDbPolyFaceMeshVertex
 10
-5.790088176727294
 20
-2.999999999999999
 30
13.18438053131103
 70
   192
  0
VERTEX
  5
325
330
31D
100
AcDbEntity
  8
3D-P-SANR-FIXT
100
AcDbVertex
100
AcDbPolyFaceMeshVertex
 10
-6.496958971023558
 20
-2.999999999999999
 30
16.24788093566894
 70
   192
  0
VERTEX
  5
326
330
31D
100
AcDbEntity
  8
3D-P-SANR-FIXT
100
AcDbVertex
100
AcDbPolyFaceMeshVertex
 10
-6.852242946624754
 20
-2.999999999999999
 30
19.37173604965209
 70
   192
  0
VERTEX
  5
327
330
31D
100
AcDbEntity
  8
3D-P-SANR-FIXT
100
AcDbVertex
100
AcDbPolyFaceMeshVertex
 10
-6.851367473602294
 20
-2.999999999999999
 30
22.51573133468628
 70
   192
  0
VERTEX
  5
328
330
31D
100
AcDbEntity
  8
3D-P-SANR-FIXT
100
AcDbVertex
100
AcDbPolyFaceMeshVertex
 10
-6.674601316452025
 20
-2.999999999999999
 30
17.80980920791625
 70
   192
  0
VERTEX
  5
329
330
31D
100
AcDbEntity
  8
3D-P-SANR-FIXT
100
AcDbVertex
100
AcDbPolyFaceMeshVertex
 10
-6.851805210113524
 20
-2.999999999999999
 30
20.94373369216919
 70
   192
  0
VERTEX
  5
32A
330
31D
100
AcDbEntity
  8
3D-P-SANR-FIXT
100
AcDbVertex
100
AcDbPolyFaceMeshVertex
 10
-6.143523216247557
 20
-2.999999999999999
 30
14.71613073348999
 70
   192
  0
VERTEX
  5
32B
330
31D
100
AcDbEntity
  8
3D-P-SANR-FIXT
100
AcDbFaceRecord
 10
0.0
 20
0.0
 30
0.0
 70
   128
 71
    12
 72
    -9
 73
    -2
  0
VERTEX
  5
32C
330
31D
100
AcDbEntity
  8
3D-P-SANR-FIXT
100
AcDbFaceRecord
 10
0.0
 20
0.0
 30
0.0
 70
   128
 71
   -11
 72
    -3
 73
     9
  0
VERTEX
  5
32D
330
31D
100
AcDbEntity
  8
3D-P-SANR-FIXT
100
AcDbFaceRecord
 10
0.0
 20
0.0
 30
0.0
 70
   128
 71
     1
 72
    10
 73
   -12
  0
VERTEX
  5
32E
330
31D
100
AcDbEntity
  8
3D-P-SANR-FIXT
100
AcDbFaceRecord
 10
0.0
 20
0.0
 30
0.0
 70
   128
 71
   -12
 72
     2
 73
    -1
  0
VERTEX
  5
32F
330
31D
100
AcDbEntity
  8
3D-P-SANR-FIXT
100
AcDbFaceRecord
 10
0.0
 20
0.0
 30
0.0
 70
   128
 71
     3
 72
    -2
 73
    -9
  0
VERTEX
  5
330
330
31D
100
AcDbEntity
  8
3D-P-SANR-FIXT
100
AcDbFaceRecord
 10
0.0
 20
0.0
 30
0.0
 70
   128
 71
    -5
 72
     8
 73
   -13
  0
VERTEX
  5
331
330
31D
100
AcDbEntity
  8
3D-P-SANR-FIXT
100
AcDbFaceRecord
 10
0.0
 20
0.0
 30
0.0
 70
   128
 71
    -8
 72
    -4
 73
    11
  0
VERTEX
  5
332
330
31D
100
AcDbEntity
  8
3D-P-SANR-FIXT
100
AcDbFaceRecord
 10
0.0
 20
0.0
 30
0.0
 70
   128
 71
    -4
 72
    -8
 73
     5
  0
VERTEX
  5
333
330
31D
100
AcDbEntity
  8
3D-P-SANR-FIXT
100
AcDbFaceRecord
 10
0.0
 20
0.0
 30
0.0
 70
   128
 71
    -5
 72
   -13
 73
     6
  0
VERTEX
  5
334
330
31D
100
AcDbEntity
  8
3D-P-SANR-FIXT
100
AcDbFaceRecord
 10
0.0
 20
0.0
 30
0.0
 70
   128
 71
    -3
 72
   -11
 73
     4
  0
VERTEX
  5
335
330
31D
100
AcDbEntity
  8
3D-P-SANR-FIXT
100
AcDbFaceRecord
 10
0.0
 20
0.0
 30
0.0
 70
   128
 71
     7
 72
    -6
 73
    13
  0
SEQEND
  5
336
330
31D
100
AcDbEntity
  8
3D-P-SANR-FIXT
  0
POLYLINE
  5
337
330
AA
100
AcDbEntity
  8
3D-P-SANR-FIXT
100
AcDbPolyFaceMesh
 66
     1
 10
0.0
 20
0.0
 30
0.0
 70
    64
 71
    30
 72
    28
1001
REVIT
1002
{
1070
     4
1000
6241
1002
}
1002
{
1070
     2
1000
-2001160
1002
}
  0
VERTEX
  5
338
330
337
100
AcDbEntity
  8
3D-P-SANR-FIXT
100
AcDbVertex
100
AcDbPolyFaceMeshVertex
 10
-5.779220938682555
 20
0.0000000000010327
 30
13.1354284286499
 70
   192
  0
VERTEX
  5
339
330
337
100
AcDbEntity
  8
3D-P-SANR-FIXT
100
AcDbVertex
100
AcDbPolyFaceMeshVertex
 10
-5.472589373588561
 20
-0.0000000000009912
 30
12.33712005615234
 70
   192
  0
VERTEX
  5
33A
330
337
100
AcDbEntity
  8
3D-P-SANR-FIXT
100
AcDbVertex
100
AcDbPolyFaceMeshVertex
 10
-5.056318759918212
 20
-0.0000000000009912
 30
11.5901026725769
 70
   192
  0
VERTEX
  5
33B
330
337
100
AcDbEntity
  8
3D-P-SANR-FIXT
100
AcDbVertex
100
AcDbPolyFaceMeshVertex
 10
-4.538749694824217
 20
-0.0000000000009912
 30
10.9093415737152
 70
   192
  0
VERTEX
  5
33C
330
337
100
AcDbEntity
  8
3D-P-SANR-FIXT
100
AcDbVertex
100
AcDbPolyFaceMeshVertex
 10
-3.930251598358153
 20
-0.0000000000009912
 30
10.30847525596618
 70
   192
  0
VERTEX
  5
33D
330
337
100
AcDbEntity
  8
3D-P-SANR-FIXT
100
AcDbVertex
100
AcDbPolyFaceMeshVertex
 10
-3.24301528930664
 20
-0.0000000000009912
 30
9.79954147338867
 70
   192
  0
VERTEX
  5
33E
330
337
100
AcDbEntity
  8
3D-P-SANR-FIXT
100
AcDbVertex
100
AcDbPolyFaceMeshVertex
 10
-2.490809977054595
 20
-0.0000000000009912
 30
9.39273405075073
 70
   192
  0
VERTEX
  5
33F
330
337
100
AcDbEntity
  8
3D-P-SANR-FIXT
100
AcDbVertex
100
AcDbPolyFaceMeshVertex
 10
-1.688705027103423
 20
-0.0000000000009912
 30
9.09620404243469
 70
   192
  0
VERTEX
  5
340
330
337
100
AcDbEntity
  8
3D-P-SANR-FIXT
100
AcDbVertex
100
AcDbPolyFaceMeshVertex
 10
-0.8527702689170835
 20
-0.0000000000009912
 30
8.91589021682739
 70
   192
  0
VERTEX
  5
341
330
337
100
AcDbEntity
  8
3D-P-SANR-FIXT
100
AcDbVertex
100
AcDbPolyFaceMeshVertex
 10
0.0002474367502145
 20
-0.0000000000009912
 30
8.855405330657957
 70
   192
  0
VERTEX
  5
342
330
337
100
AcDbEntity
  8
3D-P-SANR-FIXT
100
AcDbVertex
100
AcDbPolyFaceMeshVertex
 10
0.8532588779926298
 20
-0.0000000000009912
 30
8.915959596633909
 70
   192
  0
VERTEX
  5
343
330
337
100
AcDbEntity
  8
3D-P-SANR-FIXT
100
AcDbVertex
100
AcDbPolyFaceMeshVertex
 10
1.689175128936767
 20
-0.0000000000009912
 30
9.096340656280515
 70
   192
  0
VERTEX
  5
344
330
337
100
AcDbEntity
  8
3D-P-SANR-FIXT
100
AcDbVertex
100
AcDbPolyFaceMeshVertex
 10
2.491249859333037
 20
-0.0000000000009912
 30
9.392932891845701
 70
   192
  0
VERTEX
  5
345
330
337
100
AcDbEntity
  8
3D-P-SANR-FIXT
100
AcDbVertex
100
AcDbPolyFaceMeshVertex
 10
3.243414759635924
 20
-0.0000000000009912
 30
9.799795389175413
 70
   192
  0
VERTEX
  5
346
330
337
100
AcDbEntity
  8
3D-P-SANR-FIXT
100
AcDbVertex
100
AcDbPolyFaceMeshVertex
 10
3.930602073669433
 20
-0.0000000000009912
 30
10.30877566337585
 70
   192
  0
VERTEX
  5
347
330
337
100
AcDbEntity
  8
3D-P-SANR-FIXT
100
AcDbVertex
100
AcDbPolyFaceMeshVertex
 10
4.539044380187987
 20
-0.0000000000009912
 30
10.90967774391174
 70
   192
  0
VERTEX
  5
348
330
337
100
AcDbEntity
  8
3D-P-SANR-FIXT
100
AcDbVertex
100
AcDbPolyFaceMeshVertex
 10
5.056553721427916
 20
-0.0000000000009912
 30
11.59046173095703
 70
   192
  0
VERTEX
  5
349
330
337
100
AcDbEntity
  8
3D-P-SANR-FIXT
100
AcDbVertex
100
AcDbPolyFaceMeshVertex
 10
5.472762823104857
 20
-0.0000000000009912
 30
12.33749055862426
 70
   192
  0
VERTEX
  5
34A
330
337
100
AcDbEntity
  8
3D-P-SANR-FIXT
100
AcDbVertex
100
AcDbPolyFaceMeshVertex
 10
5.779220938682555
 20
-0.0000000000030151
 30
13.1354284286499
 70
   192
  0
VERTEX
  5
34B
330
337
100
AcDbEntity
  8
3D-P-SANR-FIXT
100
AcDbVertex
100
AcDbPolyFaceMeshVertex
 10
5.790088176727294
 20
-2.999999999999999
 30
13.18438053131103
 70
   192
  0
VERTEX
  5
34C
330
337
100
AcDbEntity
  8
3D-P-SANR-FIXT
100
AcDbVertex
100
AcDbPolyFaceMeshVertex
 10
5.169682145118712
 20
-2.999999999999999
 30
11.76572442054748
 70
   192
  0
VERTEX
  5
34D
330
337
100
AcDbEntity
  8
3D-P-SANR-FIXT
100
AcDbVertex
100
AcDbPolyFaceMeshVertex
 10
4.208507895469664
 20
-2.999999999999999
 30
10.55179166793823
 70
   192
  0
VERTEX
  5
34E
330
337
100
AcDbEntity
  8
3D-P-SANR-FIXT
100
AcDbVertex
100
AcDbPolyFaceMeshVertex
 10
2.969923317432403
 20
-2.999999999999999
 30
9.622600793838499
 70
   192
  0
VERTEX
  5
34F
330
337
100
AcDbEntity
  8
3D-P-SANR-FIXT
100
AcDbVertex
100
AcDbPolyFaceMeshVertex
 10
1.535571455955505
 20
-2.999999999999999
 30
9.039399862289426
 70
   192
  0
VERTEX
  5
350
330
337
100
AcDbEntity
  8
3D-P-SANR-FIXT
100
AcDbVertex
100
AcDbPolyFaceMeshVertex
 10
0.0000000000003389
 20
-2.999999999999999
 30
8.840632438659666
 70
   192
  0
VERTEX
  5
351
330
337
100
AcDbEntity
  8
3D-P-SANR-FIXT
100
AcDbVertex
100
AcDbPolyFaceMeshVertex
 10
-1.535571455955505
 20
-2.999999999999999
 30
9.039399862289426
 70
   192
  0
VERTEX
  5
352
330
337
100
AcDbEntity
  8
3D-P-SANR-FIXT
100
AcDbVertex
100
AcDbPolyFaceMeshVertex
 10
-2.969923317432403
 20
-2.999999999999999
 30
9.622600793838499
 70
   192
  0
VERTEX
  5
353
330
337
100
AcDbEntity
  8
3D-P-SANR-FIXT
100
AcDbVertex
100
AcDbPolyFaceMeshVertex
 10
-4.208507895469664
 20
-2.999999999999999
 30
10.55179166793823
 70
   192
  0
VERTEX
  5
354
330
337
100
AcDbEntity
  8
3D-P-SANR-FIXT
100
AcDbVertex
100
AcDbPolyFaceMeshVertex
 10
-5.169682145118712
 20
-2.999999999999999
 30
11.76572442054748
 70
   192
  0
VERTEX
  5
355
330
337
100
AcDbEntity
  8
3D-P-SANR-FIXT
100
AcDbVertex
100
AcDbPolyFaceMeshVertex
 10
-5.790088176727294
 20
-2.999999999999999
 30
13.18438053131103
 70
   192
  0
VERTEX
  5
356
330
337
100
AcDbEntity
  8
3D-P-SANR-FIXT
100
AcDbFaceRecord
 10
0.0
 20
0.0
 30
0.0
 70
   128
 71
     1
 72
   -30
 73
     2
  0
VERTEX
  5
357
330
337
100
AcDbEntity
  8
3D-P-SANR-FIXT
100
AcDbFaceRecord
 10
0.0
 20
0.0
 30
0.0
 70
   128
 71
    -2
 72
   -29
 73
     3
  0
VERTEX
  5
358
330
337
100
AcDbEntity
  8
3D-P-SANR-FIXT
100
AcDbFaceRecord
 10
0.0
 20
0.0
 30
0.0
 70
   128
 71
     5
 72
    -4
 73
   -28
  0
VERTEX
  5
359
330
337
100
AcDbEntity
  8
3D-P-SANR-FIXT
100
AcDbFaceRecord
 10
0.0
 20
0.0
 30
0.0
 70
   128
 71
   -27
 72
     6
 73
    -5
  0
VERTEX
  5
35A
330
337
100
AcDbEntity
  8
3D-P-SANR-FIXT
100
AcDbFaceRecord
 10
0.0
 20
0.0
 30
0.0
 70
   128
 71
   -29
 72
     4
 73
    -3
  0
VERTEX
  5
35B
330
337
100
AcDbEntity
  8
3D-P-SANR-FIXT
100
AcDbFaceRecord
 10
0.0
 20
0.0
 30
0.0
 70
   128
 71
    -6
 72
   -27
 73
     7
  0
VERTEX
  5
35C
330
337
100
AcDbEntity
  8
3D-P-SANR-FIXT
100
AcDbFaceRecord
 10
0.0
 20
0.0
 30
0.0
 70
   128
 71
    -5
 72
    28
 73
   -27
  0
VERTEX
  5
35D
330
337
100
AcDbEntity
  8
3D-P-SANR-FIXT
100
AcDbFaceRecord
 10
0.0
 20
0.0
 30
0.0
 70
   128
 71
    -4
 72
    29
 73
   -28
  0
VERTEX
  5
35E
330
337
100
AcDbEntity
  8
3D-P-SANR-FIXT
100
AcDbFaceRecord
 10
0.0
 20
0.0
 30
0.0
 70
   128
 71
    -2
 72
    30
 73
   -29
  0
VERTEX
  5
35F
330
337
100
AcDbEntity
  8
3D-P-SANR-FIXT
100
AcDbFaceRecord
 10
0.0
 20
0.0
 30
0.0
 70
   128
 71
   -26
 72
     9
 73
    -8
  0
VERTEX
  5
360
330
337
100
AcDbEntity
  8
3D-P-SANR-FIXT
100
AcDbFaceRecord
 10
0.0
 20
0.0
 30
0.0
 70
   128
 71
    -9
 72
    26
 73
   -25
  0
VERTEX
  5
361
330
337
100
AcDbEntity
  8
3D-P-SANR-FIXT
100
AcDbFaceRecord
 10
0.0
 20
0.0
 30
0.0
 70
   128
 71
   -25
 72
    10
 73
    -9
  0
VERTEX
  5
362
330
337
100
AcDbEntity
  8
3D-P-SANR-FIXT
100
AcDbFaceRecord
 10
0.0
 20
0.0
 30
0.0
 70
   128
 71
    -7
 72
    27
 73
   -26
  0
VERTEX
  5
363
330
337
100
AcDbEntity
  8
3D-P-SANR-FIXT
100
AcDbFaceRecord
 10
0.0
 20
0.0
 30
0.0
 70
   128
 71
   -26
 72
     8
 73
    -7
  0
VERTEX
  5
364
330
337
100
AcDbEntity
  8
3D-P-SANR-FIXT
100
AcDbFaceRecord
 10
0.0
 20
0.0
 30
0.0
 70
   128
 71
    14
 72
   -13
 73
   -23
  0
VERTEX
  5
365
330
337
100
AcDbEntity
  8
3D-P-SANR-FIXT
100
AcDbFaceRecord
 10
0.0
 20
0.0
 30
0.0
 70
   128
 71
   -14
 72
   -23
 73
    15
  0
VERTEX
  5
366
330
337
100
AcDbEntity
  8
3D-P-SANR-FIXT
100
AcDbFaceRecord
 10
0.0
 20
0.0
 30
0.0
 70
   128
 71
   -21
 72
    18
 73
   -17
  0
VERTEX
  5
367
330
337
100
AcDbEntity
  8
3D-P-SANR-FIXT
100
AcDbFaceRecord
 10
0.0
 20
0.0
 30
0.0
 70
   128
 71
    17
 72
   -16
 73
   -21
  0
VERTEX
  5
368
330
337
100
AcDbEntity
  8
3D-P-SANR-FIXT
100
AcDbFaceRecord
 10
0.0
 20
0.0
 30
0.0
 70
   128
 71
    16
 72
   -15
 73
   -22
  0
VERTEX
  5
369
330
337
100
AcDbEntity
  8
3D-P-SANR-FIXT
100
AcDbFaceRecord
 10
0.0
 20
0.0
 30
0.0
 70
   128
 71
    19
 72
   -18
 73
    20
  0
VERTEX
  5
36A
330
337
100
AcDbEntity
  8
3D-P-SANR-FIXT
100
AcDbFaceRecord
 10
0.0
 20
0.0
 30
0.0
 70
   128
 71
   -11
 72
    25
 73
   -24
  0
VERTEX
  5
36B
330
337
100
AcDbEntity
  8
3D-P-SANR-FIXT
100
AcDbFaceRecord
 10
0.0
 20
0.0
 30
0.0
 70
   128
 71
    12
 72
   -11
 73
   -24
  0
VERTEX
  5
36C
330
337
100
AcDbEntity
  8
3D-P-SANR-FIXT
100
AcDbFaceRecord
 10
0.0
 20
0.0
 30
0.0
 70
   128
 71
   -12
 72
   -24
 73
    13
  0
VERTEX
  5
36D
330
337
100
AcDbEntity
  8
3D-P-SANR-FIXT
100
AcDbFaceRecord
 10
0.0
 20
0.0
 30
0.0
 70
   128
 71
   -10
 72
   -25
 73
    11
  0
VERTEX
  5
36E
330
337
100
AcDbEntity
  8
3D-P-SANR-FIXT
100
AcDbFaceRecord
 10
0.0
 20
0.0
 30
0.0
 70
   128
 71
    24
 72
   -23
 73
   -13
  0
VERTEX
  5
36F
330
337
100
AcDbEntity
  8
3D-P-SANR-FIXT
100
AcDbFaceRecord
 10
0.0
 20
0.0
 30
0.0
 70
   128
 71
    23
 72
   -22
 73
   -15
  0
VERTEX
  5
370
330
337
100
AcDbEntity
  8
3D-P-SANR-FIXT
100
AcDbFaceRecord
 10
0.0
 20
0.0
 30
0.0
 70
   128
 71
   -16
 72
    22
 73
   -21
  0
VERTEX
  5
371
330
337
100
AcDbEntity
  8
3D-P-SANR-FIXT
100
AcDbFaceRecord
 10
0.0
 20
0.0
 30
0.0
 70
   128
 71
    21
 72
   -20
 73
   -18
  0
SEQEND
  5
372
330
337
100
AcDbEntity
  8
3D-P-SANR-FIXT
  0
POLYLINE
  5
373
330
AA
100
AcDbEntity
  8
3D-P-SANR-FIXT
100
AcDbPolyFaceMesh
 66
     1
 10
0.0
 20
0.0
 30
0.0
 70
    64
 71
    13
 72
    11
1001
REVIT
1002
{
1070
     4
1000
6241
1002
}
1002
{
1070
     2
1000
-2001160
1002
}
  0
VERTEX
  5
374
330
373
100
AcDbEntity
  8
3D-P-SANR-FIXT
100
AcDbVertex
100
AcDbPolyFaceMeshVertex
 10
5.779220938682555
 20
-0.0000000000030151
 30
13.1354284286499
 70
   192
  0
VERTEX
  5
375
330
373
100
AcDbEntity
  8
3D-P-SANR-FIXT
100
AcDbVertex
100
AcDbPolyFaceMeshVertex
 10
6.326512813568114
 20
-0.0000000000009912
 30
15.11223936080932
 70
   192
  0
VERTEX
  5
376
330
373
100
AcDbEntity
  8
3D-P-SANR-FIXT
100
AcDbVertex
100
AcDbPolyFaceMeshVertex
 10
6.771094322204588
 20
-0.0000000000009912
 30
17.11463212966918
 70
   192
  0
VERTEX
  5
377
330
373
100
AcDbEntity
  8
3D-P-SANR-FIXT
100
AcDbVertex
100
AcDbPolyFaceMeshVertex
 10
7.111786365509032
 20
-0.0000000000009912
 30
19.13727664947509
 70
   192
  0
VERTEX
  5
378
330
373
100
AcDbEntity
  8
3D-P-SANR-FIXT
100
AcDbVertex
100
AcDbPolyFaceMeshVertex
 10
7.347682714462279
 20
-0.0000000000009912
 30
21.17479133605957
 70
   192
  0
VERTEX
  5
379
330
373
100
AcDbEntity
  8
3D-P-SANR-FIXT
100
AcDbVertex
100
AcDbPolyFaceMeshVertex
 10
7.478153228759764
 20
-0.0000000000036101
 30
23.2216157913208
 70
   192
  0
VERTEX
  5
37A
330
373
100
AcDbEntity
  8
3D-P-SANR-FIXT
100
AcDbVertex
100
AcDbPolyFaceMeshVertex
 10
6.851367473602294
 20
-2.999999999999999
 30
22.51573133468628
 70
   192
  0
VERTEX
  5
37B
330
373
100
AcDbEntity
  8
3D-P-SANR-FIXT
100
AcDbVertex
100
AcDbPolyFaceMeshVertex
 10
6.852242946624754
 20
-2.999999999999999
 30
19.37173604965209
 70
   192
  0
VERTEX
  5
37C
330
373
100
AcDbEntity
  8
3D-P-SANR-FIXT
100
AcDbVertex
100
AcDbPolyFaceMeshVertex
 10
6.496958971023558
 20
-2.999999999999999
 30
16.24788093566894
 70
   192
  0
VERTEX
  5
37D
330
373
100
AcDbEntity
  8
3D-P-SANR-FIXT
100
AcDbVertex
100
AcDbPolyFaceMeshVertex
 10
5.790088176727294
 20
-2.999999999999999
 30
13.18438053131103
 70
   192
  0
VERTEX
  5
37E
330
373
100
AcDbEntity
  8
3D-P-SANR-FIXT
100
AcDbVertex
100
AcDbPolyFaceMeshVertex
 10
6.674601316452025
 20
-2.999999999999999
 30
17.80980920791625
 70
   192
  0
VERTEX
  5
37F
330
373
100
AcDbEntity
  8
3D-P-SANR-FIXT
100
AcDbVertex
100
AcDbPolyFaceMeshVertex
 10
6.143523216247557
 20
-2.999999999999999
 30
14.71613073348999
 70
   192
  0
VERTEX
  5
380
330
373
100
AcDbEntity
  8
3D-P-SANR-FIXT
100
AcDbVertex
100
AcDbPolyFaceMeshVertex
 10
6.851805210113524
 20
-2.999999999999999
 30
20.94373369216919
 70
   192
  0
VERTEX
  5
381
330
373
100
AcDbEntity
  8
3D-P-SANR-FIXT
100
AcDbFaceRecord
 10
0.0
 20
0.0
 30
0.0
 70
   128
 71
    12
 72
    -9
 73
    -2
  0
VERTEX
  5
382
330
373
100
AcDbEntity
  8
3D-P-SANR-FIXT
100
AcDbFaceRecord
 10
0.0
 20
0.0
 30
0.0
 70
   128
 71
   -11
 72
    -3
 73
     9
  0
VERTEX
  5
383
330
373
100
AcDbEntity
  8
3D-P-SANR-FIXT
100
AcDbFaceRecord
 10
0.0
 20
0.0
 30
0.0
 70
   128
 71
     1
 72
    10
 73
   -12
  0
VERTEX
  5
384
330
373
100
AcDbEntity
  8
3D-P-SANR-FIXT
100
AcDbFaceRecord
 10
0.0
 20
0.0
 30
0.0
 70
   128
 71
   -12
 72
     2
 73
    -1
  0
VERTEX
  5
385
330
373
100
AcDbEntity
  8
3D-P-SANR-FIXT
100
AcDbFaceRecord
 10
0.0
 20
0.0
 30
0.0
 70
   128
 71
     3
 72
    -2
 73
    -9
  0
VERTEX
  5
386
330
373
100
AcDbEntity
  8
3D-P-SANR-FIXT
100
AcDbFaceRecord
 10
0.0
 20
0.0
 30
0.0
 70
   128
 71
    -5
 72
     8
 73
   -13
  0
VERTEX
  5
387
330
373
100
AcDbEntity
  8
3D-P-SANR-FIXT
100
AcDbFaceRecord
 10
0.0
 20
0.0
 30
0.0
 70
   128
 71
    -8
 72
    -4
 73
    11
  0
VERTEX
  5
388
330
373
100
AcDbEntity
  8
3D-P-SANR-FIXT
100
AcDbFaceRecord
 10
0.0
 20
0.0
 30
0.0
 70
   128
 71
    -4
 72
    -8
 73
     5
  0
VERTEX
  5
389
330
373
100
AcDbEntity
  8
3D-P-SANR-FIXT
100
AcDbFaceRecord
 10
0.0
 20
0.0
 30
0.0
 70
   128
 71
    -5
 72
   -13
 73
     6
  0
VERTEX
  5
38A
330
373
100
AcDbEntity
  8
3D-P-SANR-FIXT
100
AcDbFaceRecord
 10
0.0
 20
0.0
 30
0.0
 70
   128
 71
    -3
 72
   -11
 73
     4
  0
VERTEX
  5
38B
330
373
100
AcDbEntity
  8
3D-P-SANR-FIXT
100
AcDbFaceRecord
 10
0.0
 20
0.0
 30
0.0
 70
   128
 71
     7
 72
    -6
 73
    13
  0
SEQEND
  5
38C
330
373
100
AcDbEntity
  8
3D-P-SANR-FIXT
  0
POLYLINE
  5
38D
330
AA
100
AcDbEntity
  8
3D-P-SANR-FIXT
100
AcDbPolyFaceMesh
 66
     1
 10
0.0
 20
0.0
 30
0.0
 70
    64
 71
    22
 72
    24
1001
REVIT
1002
{
1070
     4
1000
6241
1002
}
1002
{
1070
     2
1000
-2001160
1002
}
  0
VERTEX
  5
38E
330
38D
100
AcDbEntity
  8
3D-P-SANR-FIXT
100
AcDbVertex
100
AcDbPolyFaceMeshVertex
 10
7.478153228759764
 20
-0.00000000000361
 30
23.2216157913208
 70
   192
  0
VERTEX
  5
38F
330
38D
100
AcDbEntity
  8
3D-P-SANR-FIXT
100
AcDbVertex
100
AcDbPolyFaceMeshVertex
 10
7.429497957229613
 20
-0.0000000000009912
 30
23.51714944839477
 70
   192
  0
VERTEX
  5
390
330
38D
100
AcDbEntity
  8
3D-P-SANR-FIXT
100
AcDbVertex
100
AcDbPolyFaceMeshVertex
 10
7.269076108932494
 20
-0.0000000000009912
 30
23.77008104324341
 70
   192
  0
VERTEX
  5
391
330
38D
100
AcDbEntity
  8
3D-P-SANR-FIXT
100
AcDbVertex
100
AcDbPolyFaceMeshVertex
 10
7.02247381210327
 20
-0.0000000000009912
 30
23.94006586074829
 70
   192
  0
VERTEX
  5
392
330
38D
100
AcDbEntity
  8
3D-P-SANR-FIXT
100
AcDbVertex
100
AcDbPolyFaceMeshVertex
 10
6.728691101074217
 20
-0.0000000000033476
 30
24.0
 70
   192
  0
VERTEX
  5
393
330
38D
100
AcDbEntity
  8
3D-P-SANR-FIXT
100
AcDbVertex
100
AcDbPolyFaceMeshVertex
 10
6.352181196212767
 20
-2.999999999999999
 30
22.98722648620605
 70
   192
  0
VERTEX
  5
394
330
38D
100
AcDbEntity
  8
3D-P-SANR-FIXT
100
AcDbVertex
100
AcDbPolyFaceMeshVertex
 10
6.476993322372435
 20
-2.999999999999999
 30
22.9713978767395
 70
   192
  0
VERTEX
  5
395
330
38D
100
AcDbEntity
  8
3D-P-SANR-FIXT
100
AcDbVertex
100
AcDbPolyFaceMeshVertex
 10
6.593903303146361
 20
-2.999999999999999
 30
22.92491340637207
 70
   192
  0
VERTEX
  5
396
330
38D
100
AcDbEntity
  8
3D-P-SANR-FIXT
100
AcDbVertex
100
AcDbPolyFaceMeshVertex
 10
6.695508241653441
 20
-2.999999999999999
 30
22.85071849822998
 70
   192
  0
VERTEX
  5
397
330
38D
100
AcDbEntity
  8
3D-P-SANR-FIXT
100
AcDbVertex
100
AcDbPolyFaceMeshVertex
 10
6.775375843048094
 20
-2.999999999999999
 30
22.7535080909729
 70
   192
  0
VERTEX
  5
398
330
38D
100
AcDbEntity
  8
3D-P-SANR-FIXT
100
AcDbVertex
100
AcDbPolyFaceMeshVertex
 10
6.828449249267577
 20
-2.999999999999999
 30
22.63943767547607
 70
   192
  0
VERTEX
  5
399
330
38D
100
AcDbEntity
  8
3D-P-SANR-FIXT
100
AcDbVertex
100
AcDbPolyFaceMeshVertex
 10
6.851367473602294
 20
-2.999999999999999
 30
22.51573133468628
 70
   192
  0
VERTEX
  5
39A
330
38D
100
AcDbEntity
  8
3D-P-SANR-FIXT
100
AcDbVertex
100
AcDbPolyFaceMeshVertex
 10
7.199040412902831
 20
-1.335924804210662
 30
22.90727949142456
 70
   192
  0
VERTEX
  5
39B
330
38D
100
AcDbEntity
  8
3D-P-SANR-FIXT
100
AcDbVertex
100
AcDbPolyFaceMeshVertex
 10
7.036004304885863
 20
-1.500364780426025
 30
23.24886989593506
 70
   192
  0
VERTEX
  5
39C
330
38D
100
AcDbEntity
  8
3D-P-SANR-FIXT
100
AcDbVertex
100
AcDbPolyFaceMeshVertex
 10
6.561028003692626
 20
-1.335924893617629
 30
23.54900407791137
 70
   192
  0
VERTEX
  5
39D
330
38D
100
AcDbEntity
  8
3D-P-SANR-FIXT
100
AcDbVertex
100
AcDbPolyFaceMeshVertex
 10
7.445297241210936
 20
-0.0000000000018416
 30
23.42118501663208
 70
   192
  0
VERTEX
  5
39E
330
38D
100
AcDbEntity
  8
3D-P-SANR-FIXT
100
AcDbVertex
100
AcDbPolyFaceMeshVertex
 10
7.130934476852416
 20
-1.502843499183654
 30
23.06961107254028
 70
   192
  0
VERTEX
  5
39F
330
38D
100
AcDbEntity
  8
3D-P-SANR-FIXT
100
AcDbVertex
100
AcDbPolyFaceMeshVertex
 10
6.926861286163329
 20
-0.0000000000017581
 30
23.95957231521606
 70
   192
  0
VERTEX
  5
3A0
330
38D
100
AcDbEntity
  8
3D-P-SANR-FIXT
100
AcDbVertex
100
AcDbPolyFaceMeshVertex
 10
6.741941928863524
 20
-1.502852618694305
 30
23.45910787582397
 70
   192
  0
VERTEX
  5
3A1
330
38D
100
AcDbEntity
  8
3D-P-SANR-FIXT
100
AcDbVertex
100
AcDbPolyFaceMeshVertex
 10
7.145775318145751
 20
-0.0000000000009912
 30
23.85507345199584
 70
   192
  0
VERTEX
  5
3A2
330
38D
100
AcDbEntity
  8
3D-P-SANR-FIXT
100
AcDbVertex
100
AcDbPolyFaceMeshVertex
 10
6.905375719070433
 20
-1.584616363048553
 30
23.33768033981323
 70
   192
  0
VERTEX
  5
3A3
330
38D
100
AcDbEntity
  8
3D-P-SANR-FIXT
100
AcDbVertex
100
AcDbPolyFaceMeshVertex
 10
7.349287033081053
 20
-0.0000000000009912
 30
23.64361524581909
 70
   192
  0
VERTEX
  5
3A4
330
38D
100
AcDbEntity
  8
3D-P-SANR-FIXT
100
AcDbFaceRecord
 10
0.0
 20
0.0
 30
0.0
 70
   128
 71
    -3
 72
   -21
 73
    20
  0
VERTEX
  5
3A5
330
38D
100
AcDbEntity
  8
3D-P-SANR-FIXT
100
AcDbFaceRecord
 10
0.0
 20
0.0
 30
0.0
 70
   128
 71
    -8
 72
   -19
 73
   -21
  0
VERTEX
  5
3A6
330
38D
100
AcDbEntity
  8
3D-P-SANR-FIXT
100
AcDbFaceRecord
 10
0.0
 20
0.0
 30
0.0
 70
   128
 71
   -14
 72
   -22
 73
   -17
  0
VERTEX
  5
3A7
330
38D
100
AcDbEntity
  8
3D-P-SANR-FIXT
100
AcDbFaceRecord
 10
0.0
 20
0.0
 30
0.0
 70
   128
 71
     2
 72
   -16
 73
   -17
  0
VERTEX
  5
3A8
330
38D
100
AcDbEntity
  8
3D-P-SANR-FIXT
100
AcDbFaceRecord
 10
0.0
 20
0.0
 30
0.0
 70
   128
 71
    13
 72
    12
 73
   -11
  0
VERTEX
  5
3A9
330
38D
100
AcDbEntity
  8
3D-P-SANR-FIXT
100
AcDbFaceRecord
 10
0.0
 20
0.0
 30
0.0
 70
   128
 71
    16
 72
     1
 73
   -13
  0
VERTEX
  5
3AA
330
38D
100
AcDbEntity
  8
3D-P-SANR-FIXT
100
AcDbFaceRecord
 10
0.0
 20
0.0
 30
0.0
 70
   128
 71
   -13
 72
   -11
 73
   -17
  0
VERTEX
  5
3AB
330
38D
100
AcDbEntity
  8
3D-P-SANR-FIXT
100
AcDbFaceRecord
 10
0.0
 20
0.0
 30
0.0
 70
   128
 71
    10
 72
    -9
 73
   -14
  0
VERTEX
  5
3AC
330
38D
100
AcDbEntity
  8
3D-P-SANR-FIXT
100
AcDbFaceRecord
 10
0.0
 20
0.0
 30
0.0
 70
   128
 71
   -14
 72
   -21
 73
    -3
  0
VERTEX
  5
3AD
330
38D
100
AcDbEntity
  8
3D-P-SANR-FIXT
100
AcDbFaceRecord
 10
0.0
 20
0.0
 30
0.0
 70
   128
 71
    -9
 72
   -21
 73
   -14
  0
VERTEX
  5
3AE
330
38D
100
AcDbEntity
  8
3D-P-SANR-FIXT
100
AcDbFaceRecord
 10
0.0
 20
0.0
 30
0.0
 70
   128
 71
   -21
 72
     9
 73
    -8
  0
VERTEX
  5
3AF
330
38D
100
AcDbEntity
  8
3D-P-SANR-FIXT
100
AcDbFaceRecord
 10
0.0
 20
0.0
 30
0.0
 70
   128
 71
    15
 72
     5
 73
   -18
  0
VERTEX
  5
3B0
330
38D
100
AcDbEntity
  8
3D-P-SANR-FIXT
100
AcDbFaceRecord
 10
0.0
 20
0.0
 30
0.0
 70
   128
 71
   -17
 72
   -10
 73
   -14
  0
VERTEX
  5
3B1
330
38D
100
AcDbEntity
  8
3D-P-SANR-FIXT
100
AcDbFaceRecord
 10
0.0
 20
0.0
 30
0.0
 70
   128
 71
   -19
 72
     8
 73
    -7
  0
VERTEX
  5
3B2
330
38D
100
AcDbEntity
  8
3D-P-SANR-FIXT
100
AcDbFaceRecord
 10
0.0
 20
0.0
 30
0.0
 70
   128
 71
   -19
 72
    18
 73
    -4
  0
VERTEX
  5
3B3
330
38D
100
AcDbEntity
  8
3D-P-SANR-FIXT
100
AcDbFaceRecord
 10
0.0
 20
0.0
 30
0.0
 70
   128
 71
   -17
 72
    11
 73
   -10
  0
VERTEX
  5
3B4
330
38D
100
AcDbEntity
  8
3D-P-SANR-FIXT
100
AcDbFaceRecord
 10
0.0
 20
0.0
 30
0.0
 70
   128
 71
   -13
 72
   -17
 73
   -16
  0
VERTEX
  5
3B5
330
38D
100
AcDbEntity
  8
3D-P-SANR-FIXT
100
AcDbFaceRecord
 10
0.0
 20
0.0
 30
0.0
 70
   128
 71
   -15
 72
   -18
 73
   -19
  0
VERTEX
  5
3B6
330
38D
100
AcDbEntity
  8
3D-P-SANR-FIXT
100
AcDbFaceRecord
 10
0.0
 20
0.0
 30
0.0
 70
   128
 71
     7
 72
     6
 73
   -15
  0
VERTEX
  5
3B7
330
38D
100
AcDbEntity
  8
3D-P-SANR-FIXT
100
AcDbFaceRecord
 10
0.0
 20
0.0
 30
0.0
 70
   128
 71
     4
 72
   -20
 73
   -19
  0
VERTEX
  5
3B8
330
38D
100
AcDbEntity
  8
3D-P-SANR-FIXT
100
AcDbFaceRecord
 10
0.0
 20
0.0
 30
0.0
 70
   128
 71
    -7
 72
   -15
 73
   -19
  0
VERTEX
  5
3B9
330
38D
100
AcDbEntity
  8
3D-P-SANR-FIXT
100
AcDbFaceRecord
 10
0.0
 20
0.0
 30
0.0
 70
   128
 71
   -20
 72
   -21
 73
   -19
  0
VERTEX
  5
3BA
330
38D
100
AcDbEntity
  8
3D-P-SANR-FIXT
100
AcDbFaceRecord
 10
0.0
 20
0.0
 30
0.0
 70
   128
 71
    -2
 72
   -17
 73
    22
  0
VERTEX
  5
3BB
330
38D
100
AcDbEntity
  8
3D-P-SANR-FIXT
100
AcDbFaceRecord
 10
0.0
 20
0.0
 30
0.0
 70
   128
 71
   -14
 72
     3
 73
   -22
  0
SEQEND
  5
3BC
330
38D
100
AcDbEntity
  8
3D-P-SANR-FIXT
  0
POLYLINE
  5
3BD
330
AA
100
AcDbEntity
  8
3D-P-SANR-FIXT
100
AcDbPolyFaceMesh
 66
     1
 10
0.0
 20
0.0
 30
0.0
 70
    64
 71
     4
 72
     1
1001
REVIT
1002
{
1070
     4
1000
6241
1002
}
1002
{
1070
     2
1000
-2001160
1002
}
  0
VERTEX
  5
3BE
330
3BD
100
AcDbEntity
  8
3D-P-SANR-FIXT
100
AcDbVertex
100
AcDbPolyFaceMeshVertex
 10
6.728691101074217
 20
-0.0000000000033473
 30
24.0
 70
   192
  0
VERTEX
  5
3BF
330
3BD
100
AcDbEntity
  8
3D-P-SANR-FIXT
100
AcDbVertex
100
AcDbPolyFaceMeshVertex
 10
-6.728691101074217
 20
-0.0000000000009903
 30
24.0
 70
   192
  0
VERTEX
  5
3C0
330
3BD
100
AcDbEntity
  8
3D-P-SANR-FIXT
100
AcDbVertex
100
AcDbPolyFaceMeshVertex
 10
-6.352181196212767
 20
-2.999999999999999
 30
22.98722648620605
 70
   192
  0
VERTEX
  5
3C1
330
3BD
100
AcDbEntity
  8
3D-P-SANR-FIXT
100
AcDbVertex
100
AcDbPolyFaceMeshVertex
 10
6.352181196212767
 20
-2.999999999999999
 30
22.98722648620605
 70
   192
  0
VERTEX
  5
3C2
330
3BD
100
AcDbEntity
  8
3D-P-SANR-FIXT
100
AcDbFaceRecord
 10
0.0
 20
0.0
 30
0.0
 70
   128
 71
     1
 72
     4
 73
     3
 74
     2
  0
SEQEND
  5
3C3
330
3BD
100
AcDbEntity
  8
3D-P-SANR-FIXT
  0
POLYLINE
  5
3C4
330
AA
100
AcDbEntity
  8
3D-P-SANR-FIXT
100
AcDbPolyFaceMesh
 66
     1
 10
0.0
 20
0.0
 30
0.0
 70
    64
 71
    26
 72
    12
1001
REVIT
1002
{
1070
     4
1000
6241
1002
}
1002
{
1070
     2
1000
-2001160
1002
}
  0
VERTEX
  5
3C5
330
3C4
100
AcDbEntity
  8
3D-P-SANR-FIXT
100
AcDbVertex
100
AcDbPolyFaceMeshVertex
 10
-0.9659257829189298
 20
-2.999999999999999
 30
10.49118089675903
 70
   192
  0
VERTEX
  5
3C6
330
3C4
100
AcDbEntity
  8
3D-P-SANR-FIXT
100
AcDbVertex
100
AcDbPolyFaceMeshVertex
 10
-0.866025388240814
 20
-2.999999999999999
 30
10.25000023841857
 70
   192
  0
VERTEX
  5
3C7
330
3C4
100
AcDbEntity
  8
3D-P-SANR-FIXT
100
AcDbVertex
100
AcDbPolyFaceMeshVertex
 10
-0.7071067839860916
 20
-2.999999999999999
 30
10.04289293289184
 70
   192
  0
VERTEX
  5
3C8
330
3C4
100
AcDbEntity
  8
3D-P-SANR-FIXT
100
AcDbVertex
100
AcDbPolyFaceMeshVertex
 10
-0.5000000149011611
 20
-2.999999999999999
 30
9.883974552154539
 70
   192
  0
VERTEX
  5
3C9
330
3C4
100
AcDbEntity
  8
3D-P-SANR-FIXT
100
AcDbVertex
100
AcDbPolyFaceMeshVertex
 10
-0.258819043636322
 20
-2.999999999999999
 30
9.784074068069456
 70
   192
  0
VERTEX
  5
3CA
330
3C4
100
AcDbEntity
  8
3D-P-SANR-FIXT
100
AcDbVertex
100
AcDbPolyFaceMeshVertex
 10
0.0000000000016467
 20
-2.999999999999999
 30
9.749999999999998
 70
   192
  0
VERTEX
  5
3CB
330
3C4
100
AcDbEntity
  8
3D-P-SANR-FIXT
100
AcDbVertex
100
AcDbPolyFaceMeshVertex
 10
0.258819043636322
 20
-2.999999999999999
 30
9.784074068069456
 70
   192
  0
VERTEX
  5
3CC
330
3C4
100
AcDbEntity
  8
3D-P-SANR-FIXT
100
AcDbVertex
100
AcDbPolyFaceMeshVertex
 10
0.5000000149011611
 20
-2.999999999999999
 30
9.883974552154539
 70
   192
  0
VERTEX
  5
3CD
330
3C4
100
AcDbEntity
  8
3D-P-SANR-FIXT
100
AcDbVertex
100
AcDbPolyFaceMeshVertex
 10
0.7071067839860916
 20
-2.999999999999999
 30
10.04289293289184
 70
   192
  0
VERTEX
  5
3CE
330
3C4
100
AcDbEntity
  8
3D-P-SANR-FIXT
100
AcDbVertex
100
AcDbPolyFaceMeshVertex
 10
0.866025388240814
 20
-2.999999999999999
 30
10.25000023841857
 70
   192
  0
VERTEX
  5
3CF
330
3C4
100
AcDbEntity
  8
3D-P-SANR-FIXT
100
AcDbVertex
100
AcDbPolyFaceMeshVertex
 10
0.9659257829189298
 20
-2.999999999999999
 30
10.49118089675903
 70
   192
  0
VERTEX
  5
3D0
330
3C4
100
AcDbEntity
  8
3D-P-SANR-FIXT
100
AcDbVertex
100
AcDbPolyFaceMeshVertex
 10
1.000000029802322
 20
-2.999999999999999
 30
10.74999976158142
 70
   192
  0
VERTEX
  5
3D1
330
3C4
100
AcDbEntity
  8
3D-P-SANR-FIXT
100
AcDbVertex
100
AcDbPolyFaceMeshVertex
 10
1.000000029802322
 20
-6.62499976158142
 30
10.74999976158142
 70
   192
  0
VERTEX
  5
3D2
330
3C4
100
AcDbEntity
  8
3D-P-SANR-FIXT
100
AcDbVertex
100
AcDbPolyFaceMeshVertex
 10
0.9659257829189298
 20
-6.62499976158142
 30
10.49118089675903
 70
   192
  0
VERTEX
  5
3D3
330
3C4
100
AcDbEntity
  8
3D-P-SANR-FIXT
100
AcDbVertex
100
AcDbPolyFaceMeshVertex
 10
0.866025388240814
 20
-6.62499976158142
 30
10.25000023841857
 70
   192
  0
VERTEX
  5
3D4
330
3C4
100
AcDbEntity
  8
3D-P-SANR-FIXT
100
AcDbVertex
100
AcDbPolyFaceMeshVertex
 10
0.7071067839860916
 20
-6.62499976158142
 30
10.04289293289184
 70
   192
  0
VERTEX
  5
3D5
330
3C4
100
AcDbEntity
  8
3D-P-SANR-FIXT
100
AcDbVertex
100
AcDbPolyFaceMeshVertex
 10
0.5000000149011611
 20
-6.62499976158142
 30
9.883974552154539
 70
   192
  0
VERTEX
  5
3D6
330
3C4
100
AcDbEntity
  8
3D-P-SANR-FIXT
100
AcDbVertex
100
AcDbPolyFaceMeshVertex
 10
0.258819043636322
 20
-6.62499976158142
 30
9.784074068069456
 70
   192
  0
VERTEX
  5
3D7
330
3C4
100
AcDbEntity
  8
3D-P-SANR-FIXT
100
AcDbVertex
100
AcDbPolyFaceMeshVertex
 10
0.0000000000003731
 20
-6.62499976158142
 30
9.749999999999998
 70
   192
  0
VERTEX
  5
3D8
330
3C4
100
AcDbEntity
  8
3D-P-SANR-FIXT
100
AcDbVertex
100
AcDbPolyFaceMeshVertex
 10
-0.258819043636322
 20
-6.62499976158142
 30
9.784074068069456
 70
   192
  0
VERTEX
  5
3D9
330
3C4
100
AcDbEntity
  8
3D-P-SANR-FIXT
100
AcDbVertex
100
AcDbPolyFaceMeshVertex
 10
-0.5000000149011611
 20
-6.62499976158142
 30
9.883974552154539
 70
   192
  0
VERTEX
  5
3DA
330
3C4
100
AcDbEntity
  8
3D-P-SANR-FIXT
100
AcDbVertex
100
AcDbPolyFaceMeshVertex
 10
-0.7071067839860916
 20
-6.62499976158142
 30
10.04289293289184
 70
   192
  0
VERTEX
  5
3DB
330
3C4
100
AcDbEntity
  8
3D-P-SANR-FIXT
100
AcDbVertex
100
AcDbPolyFaceMeshVertex
 10
-0.866025388240814
 20
-6.62499976158142
 30
10.25000023841857
 70
   192
  0
VERTEX
  5
3DC
330
3C4
100
AcDbEntity
  8
3D-P-SANR-FIXT
100
AcDbVertex
100
AcDbPolyFaceMeshVertex
 10
-0.9659257829189298
 20
-6.62499976158142
 30
10.49118089675903
 70
   192
  0
VERTEX
  5
3DD
330
3C4
100
AcDbEntity
  8
3D-P-SANR-FIXT
100
AcDbVertex
100
AcDbPolyFaceMeshVertex
 10
-1.000000029802322
 20
-6.62499976158142
 30
10.74999976158142
 70
   192
  0
VERTEX
  5
3DE
330
3C4
100
AcDbEntity
  8
3D-P-SANR-FIXT
100
AcDbVertex
100
AcDbPolyFaceMeshVertex
 10
-1.000000029802322
 20
-2.999999999999999
 30
10.74999976158142
 70
   192
  0
VERTEX
  5
3DF
330
3C4
100
AcDbEntity
  8
3D-P-SANR-FIXT
100
AcDbFaceRecord
 10
0.0
 20
0.0
 30
0.0
 70
   128
 71
    15
 72
   -14
 73
    11
 74
   -10
  0
VERTEX
  5
3E0
330
3C4
100
AcDbEntity
  8
3D-P-SANR-FIXT
100
AcDbFaceRecord
 10
0.0
 20
0.0
 30
0.0
 70
   128
 71
    16
 72
   -15
 73
    10
 74
    -9
  0
VERTEX
  5
3E1
330
3C4
100
AcDbEntity
  8
3D-P-SANR-FIXT
100
AcDbFaceRecord
 10
0.0
 20
0.0
 30
0.0
 70
   128
 71
    18
 72
   -17
 73
     8
 74
    -7
  0
VERTEX
  5
3E2
330
3C4
100
AcDbEntity
  8
3D-P-SANR-FIXT
100
AcDbFaceRecord
 10
0.0
 20
0.0
 30
0.0
 70
   128
 71
    17
 72
   -16
 73
     9
 74
    -8
  0
VERTEX
  5
3E3
330
3C4
100
AcDbEntity
  8
3D-P-SANR-FIXT
100
AcDbFaceRecord
 10
0.0
 20
0.0
 30
0.0
 70
   128
 71
    19
 72
   -18
 73
     7
 74
    -6
  0
VERTEX
  5
3E4
330
3C4
100
AcDbEntity
  8
3D-P-SANR-FIXT
100
AcDbFaceRecord
 10
0.0
 20
0.0
 30
0.0
 70
   128
 71
    14
 72
    13
 73
    12
 74
   -11
  0
VERTEX
  5
3E5
330
3C4
100
AcDbEntity
  8
3D-P-SANR-FIXT
100
AcDbFaceRecord
 10
0.0
 20
0.0
 30
0.0
 70
   128
 71
    21
 72
   -20
 73
     5
 74
    -4
  0
VERTEX
  5
3E6
330
3C4
100
AcDbEntity
  8
3D-P-SANR-FIXT
100
AcDbFaceRecord
 10
0.0
 20
0.0
 30
0.0
 70
   128
 71
    22
 72
   -21
 73
     4
 74
    -3
  0
VERTEX
  5
3E7
330
3C4
100
AcDbEntity
  8
3D-P-SANR-FIXT
100
AcDbFaceRecord
 10
0.0
 20
0.0
 30
0.0
 70
   128
 71
    24
 72
   -23
 73
     2
 74
    -1
  0
VERTEX
  5
3E8
330
3C4
100
AcDbEntity
  8
3D-P-SANR-FIXT
100
AcDbFaceRecord
 10
0.0
 20
0.0
 30
0.0
 70
   128
 71
    23
 72
   -22
 73
     3
 74
    -2
  0
VERTEX
  5
3E9
330
3C4
100
AcDbEntity
  8
3D-P-SANR-FIXT
100
AcDbFaceRecord
 10
0.0
 20
0.0
 30
0.0
 70
   128
 71
    25
 72
   -24
 73
     1
 74
    26
  0
VERTEX
  5
3EA
330
3C4
100
AcDbEntity
  8
3D-P-SANR-FIXT
100
AcDbFaceRecord
 10
0.0
 20
0.0
 30
0.0
 70
   128
 71
     6
 72
    -5
 73
    20
 74
   -19
  0
SEQEND
  5
3EB
330
3C4
100
AcDbEntity
  8
3D-P-SANR-FIXT
  0
POLYLINE
  5
3EC
330
AA
100
AcDbEntity
  8
3D-P-SANR-FIXT
100
AcDbPolyFaceMesh
 66
     1
 10
0.0
 20
0.0
 30
0.0
 70
    64
 71
    26
 72
    12
1001
REVIT
1002
{
1070
     4
1000
6241
1002
}
1002
{
1070
     2
1000
-2001160
1002
}
  0
VERTEX
  5
3ED
330
3EC
100
AcDbEntity
  8
3D-P-SANR-FIXT
100
AcDbVertex
100
AcDbPolyFaceMeshVertex
 10
-0.9659257829189298
 20
-6.62499976158142
 30
11.00881934165954
 70
   192
  0
VERTEX
  5
3EE
330
3EC
100
AcDbEntity
  8
3D-P-SANR-FIXT
100
AcDbVertex
100
AcDbPolyFaceMeshVertex
 10
-0.866025388240814
 20
-6.62499976158142
 30
11.25
 70
   192
  0
VERTEX
  5
3EF
330
3EC
100
AcDbEntity
  8
3D-P-SANR-FIXT
100
AcDbVertex
100
AcDbPolyFaceMeshVertex
 10
-0.7071067839860916
 20
-6.62499976158142
 30
11.45710659027099
 70
   192
  0
VERTEX
  5
3F0
330
3EC
100
AcDbEntity
  8
3D-P-SANR-FIXT
100
AcDbVertex
100
AcDbPolyFaceMeshVertex
 10
-0.5000000149011611
 20
-6.62499976158142
 30
11.61602568626403
 70
   192
  0
VERTEX
  5
3F1
330
3EC
100
AcDbEntity
  8
3D-P-SANR-FIXT
100
AcDbVertex
100
AcDbPolyFaceMeshVertex
 10
-0.258819043636322
 20
-6.62499976158142
 30
11.71592617034912
 70
   192
  0
VERTEX
  5
3F2
330
3EC
100
AcDbEntity
  8
3D-P-SANR-FIXT
100
AcDbVertex
100
AcDbPolyFaceMeshVertex
 10
0.0000000000003677
 20
-6.62499976158142
 30
11.75000023841858
 70
   192
  0
VERTEX
  5
3F3
330
3EC
100
AcDbEntity
  8
3D-P-SANR-FIXT
100
AcDbVertex
100
AcDbPolyFaceMeshVertex
 10
0.258819043636322
 20
-6.62499976158142
 30
11.71592617034912
 70
   192
  0
VERTEX
  5
3F4
330
3EC
100
AcDbEntity
  8
3D-P-SANR-FIXT
100
AcDbVertex
100
AcDbPolyFaceMeshVertex
 10
0.5000000149011611
 20
-6.62499976158142
 30
11.61602568626403
 70
   192
  0
VERTEX
  5
3F5
330
3EC
100
AcDbEntity
  8
3D-P-SANR-FIXT
100
AcDbVertex
100
AcDbPolyFaceMeshVertex
 10
0.7071067839860916
 20
-6.62499976158142
 30
11.45710659027099
 70
   192
  0
VERTEX
  5
3F6
330
3EC
100
AcDbEntity
  8
3D-P-SANR-FIXT
100
AcDbVertex
100
AcDbPolyFaceMeshVertex
 10
0.866025388240814
 20
-6.62499976158142
 30
11.25
 70
   192
  0
VERTEX
  5
3F7
330
3EC
100
AcDbEntity
  8
3D-P-SANR-FIXT
100
AcDbVertex
100
AcDbPolyFaceMeshVertex
 10
0.9659257829189298
 20
-6.62499976158142
 30
11.00881934165954
 70
   192
  0
VERTEX
  5
3F8
330
3EC
100
AcDbEntity
  8
3D-P-SANR-FIXT
100
AcDbVertex
100
AcDbPolyFaceMeshVertex
 10
1.000000029802322
 20
-6.62499976158142
 30
10.74999976158142
 70
   192
  0
VERTEX
  5
3F9
330
3EC
100
AcDbEntity
  8
3D-P-SANR-FIXT
100
AcDbVertex
100
AcDbPolyFaceMeshVertex
 10
1.000000029802322
 20
-2.999999999999999
 30
10.74999976158142
 70
   192
  0
VERTEX
  5
3FA
330
3EC
100
AcDbEntity
  8
3D-P-SANR-FIXT
100
AcDbVertex
100
AcDbPolyFaceMeshVertex
 10
0.9659257829189298
 20
-2.999999999999999
 30
11.00881934165954
 70
   192
  0
VERTEX
  5
3FB
330
3EC
100
AcDbEntity
  8
3D-P-SANR-FIXT
100
AcDbVertex
100
AcDbPolyFaceMeshVertex
 10
0.866025388240814
 20
-2.999999999999999
 30
11.25
 70
   192
  0
VERTEX
  5
3FC
330
3EC
100
AcDbEntity
  8
3D-P-SANR-FIXT
100
AcDbVertex
100
AcDbPolyFaceMeshVertex
 10
0.7071067839860916
 20
-2.999999999999999
 30
11.45710659027099
 70
   192
  0
VERTEX
  5
3FD
330
3EC
100
AcDbEntity
  8
3D-P-SANR-FIXT
100
AcDbVertex
100
AcDbPolyFaceMeshVertex
 10
0.5000000149011611
 20
-2.999999999999999
 30
11.61602568626403
 70
   192
  0
VERTEX
  5
3FE
330
3EC
100
AcDbEntity
  8
3D-P-SANR-FIXT
100
AcDbVertex
100
AcDbPolyFaceMeshVertex
 10
0.258819043636322
 20
-2.999999999999999
 30
11.71592617034912
 70
   192
  0
VERTEX
  5
3FF
330
3EC
100
AcDbEntity
  8
3D-P-SANR-FIXT
100
AcDbVertex
100
AcDbPolyFaceMeshVertex
 10
0.0000000000016327
 20
-2.999999999999999
 30
11.75000023841858
 70
   192
  0
VERTEX
  5
400
330
3EC
100
AcDbEntity
  8
3D-P-SANR-FIXT
100
AcDbVertex
100
AcDbPolyFaceMeshVertex
 10
-0.258819043636322
 20
-2.999999999999999
 30
11.71592617034912
 70
   192
  0
VERTEX
  5
401
330
3EC
100
AcDbEntity
  8
3D-P-SANR-FIXT
100
AcDbVertex
100
AcDbPolyFaceMeshVertex
 10
-0.5000000149011611
 20
-2.999999999999999
 30
11.61602568626403
 70
   192
  0
VERTEX
  5
402
330
3EC
100
AcDbEntity
  8
3D-P-SANR-FIXT
100
AcDbVertex
100
AcDbPolyFaceMeshVertex
 10
-0.7071067839860916
 20
-2.999999999999999
 30
11.45710659027099
 70
   192
  0
VERTEX
  5
403
330
3EC
100
AcDbEntity
  8
3D-P-SANR-FIXT
100
AcDbVertex
100
AcDbPolyFaceMeshVertex
 10
-0.866025388240814
 20
-2.999999999999999
 30
11.25
 70
   192
  0
VERTEX
  5
404
330
3EC
100
AcDbEntity
  8
3D-P-SANR-FIXT
100
AcDbVertex
100
AcDbPolyFaceMeshVertex
 10
-0.9659257829189298
 20
-2.999999999999999
 30
11.00881934165954
 70
   192
  0
VERTEX
  5
405
330
3EC
100
AcDbEntity
  8
3D-P-SANR-FIXT
100
AcDbVertex
100
AcDbPolyFaceMeshVertex
 10
-1.000000029802322
 20
-2.999999999999999
 30
10.74999976158142
 70
   192
  0
VERTEX
  5
406
330
3EC
100
AcDbEntity
  8
3D-P-SANR-FIXT
100
AcDbVertex
100
AcDbPolyFaceMeshVertex
 10
-1.000000029802322
 20
-6.62499976158142
 30
10.74999976158142
 70
   192
  0
VERTEX
  5
407
330
3EC
100
AcDbEntity
  8
3D-P-SANR-FIXT
100
AcDbFaceRecord
 10
0.0
 20
0.0
 30
0.0
 70
   128
 71
   -24
 72
     1
 73
    26
 74
    25
  0
VERTEX
  5
408
330
3EC
100
AcDbEntity
  8
3D-P-SANR-FIXT
100
AcDbFaceRecord
 10
0.0
 20
0.0
 30
0.0
 70
   128
 71
     5
 72
    -4
 73
    21
 74
   -20
  0
VERTEX
  5
409
330
3EC
100
AcDbEntity
  8
3D-P-SANR-FIXT
100
AcDbFaceRecord
 10
0.0
 20
0.0
 30
0.0
 70
   128
 71
     4
 72
    -3
 73
    22
 74
   -21
  0
VERTEX
  5
40A
330
3EC
100
AcDbEntity
  8
3D-P-SANR-FIXT
100
AcDbFaceRecord
 10
0.0
 20
0.0
 30
0.0
 70
   128
 71
     6
 72
    -5
 73
    20
 74
   -19
  0
VERTEX
  5
40B
330
3EC
100
AcDbEntity
  8
3D-P-SANR-FIXT
100
AcDbFaceRecord
 10
0.0
 20
0.0
 30
0.0
 70
   128
 71
    24
 72
   -23
 73
     2
 74
    -1
  0
VERTEX
  5
40C
330
3EC
100
AcDbEntity
  8
3D-P-SANR-FIXT
100
AcDbFaceRecord
 10
0.0
 20
0.0
 30
0.0
 70
   128
 71
    -2
 72
    23
 73
   -22
 74
     3
  0
VERTEX
  5
40D
330
3EC
100
AcDbEntity
  8
3D-P-SANR-FIXT
100
AcDbFaceRecord
 10
0.0
 20
0.0
 30
0.0
 70
   128
 71
     8
 72
    -7
 73
    18
 74
   -17
  0
VERTEX
  5
40E
330
3EC
100
AcDbEntity
  8
3D-P-SANR-FIXT
100
AcDbFaceRecord
 10
0.0
 20
0.0
 30
0.0
 70
   128
 71
     9
 72
    -8
 73
    17
 74
   -16
  0
VERTEX
  5
40F
330
3EC
100
AcDbEntity
  8
3D-P-SANR-FIXT
100
AcDbFaceRecord
 10
0.0
 20
0.0
 30
0.0
 70
   128
 71
    11
 72
   -10
 73
    15
 74
   -14
  0
VERTEX
  5
410
330
3EC
100
AcDbEntity
  8
3D-P-SANR-FIXT
100
AcDbFaceRecord
 10
0.0
 20
0.0
 30
0.0
 70
   128
 71
    10
 72
    -9
 73
    16
 74
   -15
  0
VERTEX
  5
411
330
3EC
100
AcDbEntity
  8
3D-P-SANR-FIXT
100
AcDbFaceRecord
 10
0.0
 20
0.0
 30
0.0
 70
   128
 71
    12
 72
   -11
 73
    14
 74
    13
  0
VERTEX
  5
412
330
3EC
100
AcDbEntity
  8
3D-P-SANR-FIXT
100
AcDbFaceRecord
 10
0.0
 20
0.0
 30
0.0
 70
   128
 71
    19
 72
   -18
 73
     7
 74
    -6
  0
SEQEND
  5
413
330
3EC
100
AcDbEntity
  8
3D-P-SANR-FIXT
  0
POLYLINE
  5
414
330
AA
100
AcDbEntity
  8
3D-P-SANR-FIXT
100
AcDbPolyFaceMesh
 66
     1
 10
0.0
 20
0.0
 30
0.0
 70
    64
 71
    26
 72
    12
1001
REVIT
1002
{
1070
     4
1000
6241
1002
}
1002
{
1070
     2
1000
-2001160
1002
}
  0
VERTEX
  5
415
330
414
100
AcDbEntity
  8
3D-P-SANR-FIXT
100
AcDbVertex
100
AcDbPolyFaceMeshVertex
 10
1.396296322345733
 20
-0.0000000000009912
 30
6.96323776245117
 70
   192
  0
VERTEX
  5
416
330
414
100
AcDbEntity
  8
3D-P-SANR-FIXT
100
AcDbVertex
100
AcDbPolyFaceMeshVertex
 10
1.45873412489891
 20
-0.0000000000009912
 30
6.81249976158142
 70
   192
  0
VERTEX
  5
417
330
414
100
AcDbEntity
  8
3D-P-SANR-FIXT
100
AcDbVertex
100
AcDbPolyFaceMeshVertex
 10
1.558058202266692
 20
-0.0000000000009912
 30
6.683058500289916
 70
   192
  0
VERTEX
  5
418
330
414
100
AcDbEntity
  8
3D-P-SANR-FIXT
100
AcDbVertex
100
AcDbPolyFaceMeshVertex
 10
1.687499999999999
 20
-0.0000000000009912
 30
6.583733797073363
 70
   192
  0
VERTEX
  5
419
330
414
100
AcDbEntity
  8
3D-P-SANR-FIXT
100
AcDbVertex
100
AcDbPolyFaceMeshVertex
 10
1.838238179683685
 20
-0.0000000000009912
 30
6.521296262741087
 70
   192
  0
VERTEX
  5
41A
330
414
100
AcDbEntity
  8
3D-P-SANR-FIXT
100
AcDbVertex
100
AcDbPolyFaceMeshVertex
 10
2.000000059604644
 20
-0.0000000000009912
 30
6.500000238418578
 70
   192
  0
VERTEX
  5
41B
330
414
100
AcDbEntity
  8
3D-P-SANR-FIXT
100
AcDbVertex
100
AcDbPolyFaceMeshVertex
 10
2.161761939525603
 20
-0.0000000000009912
 30
6.521296262741087
 70
   192
  0
VERTEX
  5
41C
330
414
100
AcDbEntity
  8
3D-P-SANR-FIXT
100
AcDbVertex
100
AcDbPolyFaceMeshVertex
 10
2.312499940395354
 20
-0.0000000000009912
 30
6.583733797073363
 70
   192
  0
VERTEX
  5
41D
330
414
100
AcDbEntity
  8
3D-P-SANR-FIXT
100
AcDbVertex
100
AcDbPolyFaceMeshVertex
 10
2.441941738128661
 20
-0.0000000000009912
 30
6.683058500289916
 70
   192
  0
VERTEX
  5
41E
330
414
100
AcDbEntity
  8
3D-P-SANR-FIXT
100
AcDbVertex
100
AcDbPolyFaceMeshVertex
 10
2.541265904903411
 20
-0.0000000000009912
 30
6.81249976158142
 70
   192
  0
VERTEX
  5
41F
330
414
100
AcDbEntity
  8
3D-P-SANR-FIXT
100
AcDbVertex
100
AcDbPolyFaceMeshVertex
 10
2.603703618049621
 20
-0.0000000000009912
 30
6.96323776245117
 70
   192
  0
VERTEX
  5
420
330
414
100
AcDbEntity
  8
3D-P-SANR-FIXT
100
AcDbVertex
100
AcDbPolyFaceMeshVertex
 10
2.624999999999999
 20
-0.0000000000009912
 30
7.124999999999999
 70
   192
  0
VERTEX
  5
421
330
414
100
AcDbEntity
  8
3D-P-SANR-FIXT
100
AcDbVertex
100
AcDbPolyFaceMeshVertex
 10
2.624999999999999
 20
-6.62499976158142
 30
7.124999999999999
 70
   192
  0
VERTEX
  5
422
330
414
100
AcDbEntity
  8
3D-P-SANR-FIXT
100
AcDbVertex
100
AcDbPolyFaceMeshVertex
 10
2.603703618049621
 20
-6.62499976158142
 30
6.96323776245117
 70
   192
  0
VERTEX
  5
423
330
414
100
AcDbEntity
  8
3D-P-SANR-FIXT
100
AcDbVertex
100
AcDbPolyFaceMeshVertex
 10
2.541265904903411
 20
-6.62499976158142
 30
6.81249976158142
 70
   192
  0
VERTEX
  5
424
330
414
100
AcDbEntity
  8
3D-P-SANR-FIXT
100
AcDbVertex
100
AcDbPolyFaceMeshVertex
 10
2.441941738128661
 20
-6.62499976158142
 30
6.683058500289916
 70
   192
  0
VERTEX
  5
425
330
414
100
AcDbEntity
  8
3D-P-SANR-FIXT
100
AcDbVertex
100
AcDbPolyFaceMeshVertex
 10
2.312499940395354
 20
-6.62499976158142
 30
6.583733797073363
 70
   192
  0
VERTEX
  5
426
330
414
100
AcDbEntity
  8
3D-P-SANR-FIXT
100
AcDbVertex
100
AcDbPolyFaceMeshVertex
 10
2.161761939525603
 20
-6.62499976158142
 30
6.521296262741087
 70
   192
  0
VERTEX
  5
427
330
414
100
AcDbEntity
  8
3D-P-SANR-FIXT
100
AcDbVertex
100
AcDbPolyFaceMeshVertex
 10
2.000000059604644
 20
-6.62499976158142
 30
6.500000238418578
 70
   192
  0
VERTEX
  5
428
330
414
100
AcDbEntity
  8
3D-P-SANR-FIXT
100
AcDbVertex
100
AcDbPolyFaceMeshVertex
 10
1.838238179683685
 20
-6.62499976158142
 30
6.521296262741087
 70
   192
  0
VERTEX
  5
429
330
414
100
AcDbEntity
  8
3D-P-SANR-FIXT
100
AcDbVertex
100
AcDbPolyFaceMeshVertex
 10
1.687499999999999
 20
-6.62499976158142
 30
6.583733797073363
 70
   192
  0
VERTEX
  5
42A
330
414
100
AcDbEntity
  8
3D-P-SANR-FIXT
100
AcDbVertex
100
AcDbPolyFaceMeshVertex
 10
1.558058202266692
 20
-6.62499976158142
 30
6.683058500289916
 70
   192
  0
VERTEX
  5
42B
330
414
100
AcDbEntity
  8
3D-P-SANR-FIXT
100
AcDbVertex
100
AcDbPolyFaceMeshVertex
 10
1.45873412489891
 20
-6.62499976158142
 30
6.81249976158142
 70
   192
  0
VERTEX
  5
42C
330
414
100
AcDbEntity
  8
3D-P-SANR-FIXT
100
AcDbVertex
100
AcDbPolyFaceMeshVertex
 10
1.396296322345733
 20
-6.62499976158142
 30
6.96323776245117
 70
   192
  0
VERTEX
  5
42D
330
414
100
AcDbEntity
  8
3D-P-SANR-FIXT
100
AcDbVertex
100
AcDbPolyFaceMeshVertex
 10
1.375000029802322
 20
-6.62499976158142
 30
7.124999999999999
 70
   192
  0
VERTEX
  5
42E
330
414
100
AcDbEntity
  8
3D-P-SANR-FIXT
100
AcDbVertex
100
AcDbPolyFaceMeshVertex
 10
1.375000029802322
 20
-0.0000000000004303
 30
7.124999999999999
 70
   192
  0
VERTEX
  5
42F
330
414
100
AcDbEntity
  8
3D-P-SANR-FIXT
100
AcDbFaceRecord
 10
0.0
 20
0.0
 30
0.0
 70
   128
 71
    15
 72
   -14
 73
    11
 74
   -10
  0
VERTEX
  5
430
330
414
100
AcDbEntity
  8
3D-P-SANR-FIXT
100
AcDbFaceRecord
 10
0.0
 20
0.0
 30
0.0
 70
   128
 71
    16
 72
   -15
 73
    10
 74
    -9
  0
VERTEX
  5
431
330
414
100
AcDbEntity
  8
3D-P-SANR-FIXT
100
AcDbFaceRecord
 10
0.0
 20
0.0
 30
0.0
 70
   128
 71
    18
 72
   -17
 73
     8
 74
    -7
  0
VERTEX
  5
432
330
414
100
AcDbEntity
  8
3D-P-SANR-FIXT
100
AcDbFaceRecord
 10
0.0
 20
0.0
 30
0.0
 70
   128
 71
    17
 72
   -16
 73
     9
 74
    -8
  0
VERTEX
  5
433
330
414
100
AcDbEntity
  8
3D-P-SANR-FIXT
100
AcDbFaceRecord
 10
0.0
 20
0.0
 30
0.0
 70
   128
 71
    19
 72
   -18
 73
     7
 74
    -6
  0
VERTEX
  5
434
330
414
100
AcDbEntity
  8
3D-P-SANR-FIXT
100
AcDbFaceRecord
 10
0.0
 20
0.0
 30
0.0
 70
   128
 71
    14
 72
    13
 73
    12
 74
   -11
  0
VERTEX
  5
435
330
414
100
AcDbEntity
  8
3D-P-SANR-FIXT
100
AcDbFaceRecord
 10
0.0
 20
0.0
 30
0.0
 70
   128
 71
    21
 72
   -20
 73
     5
 74
    -4
  0
VERTEX
  5
436
330
414
100
AcDbEntity
  8
3D-P-SANR-FIXT
100
AcDbFaceRecord
 10
0.0
 20
0.0
 30
0.0
 70
   128
 71
    22
 72
   -21
 73
     4
 74
    -3
  0
VERTEX
  5
437
330
414
100
AcDbEntity
  8
3D-P-SANR-FIXT
100
AcDbFaceRecord
 10
0.0
 20
0.0
 30
0.0
 70
   128
 71
    24
 72
   -23
 73
     2
 74
    -1
  0
VERTEX
  5
438
330
414
100
AcDbEntity
  8
3D-P-SANR-FIXT
100
AcDbFaceRecord
 10
0.0
 20
0.0
 30
0.0
 70
   128
 71
    23
 72
   -22
 73
     3
 74
    -2
  0
VERTEX
  5
439
330
414
100
AcDbEntity
  8
3D-P-SANR-FIXT
100
AcDbFaceRecord
 10
0.0
 20
0.0
 30
0.0
 70
   128
 71
    25
 72
   -24
 73
     1
 74
    26
  0
VERTEX
  5
43A
330
414
100
AcDbEntity
  8
3D-P-SANR-FIXT
100
AcDbFaceRecord
 10
0.0
 20
0.0
 30
0.0
 70
   128
 71
     6
 72
    -5
 73
    20
 74
   -19
  0
SEQEND
  5
43B
330
414
100
AcDbEntity
  8
3D-P-SANR-FIXT
  0
POLYLINE
  5
43C
330
AA
100
AcDbEntity
  8
3D-P-SANR-FIXT
100
AcDbPolyFaceMesh
 66
     1
 10
0.0
 20
0.0
 30
0.0
 70
    64
 71
    26
 72
    12
1001
REVIT
1002
{
1070
     4
1000
6241
1002
}
1002
{
1070
     2
1000
-2001160
1002
}
  0
VERTEX
  5
43D
330
43C
100
AcDbEntity
  8
3D-P-SANR-FIXT
100
AcDbVertex
100
AcDbPolyFaceMeshVertex
 10
1.396296322345733
 20
-6.62499976158142
 30
7.286762237548827
 70
   192
  0
VERTEX
  5
43E
330
43C
100
AcDbEntity
  8
3D-P-SANR-FIXT
100
AcDbVertex
100
AcDbPolyFaceMeshVertex
 10
1.45873412489891
 20
-6.62499976158142
 30
7.437500238418578
 70
   192
  0
VERTEX
  5
43F
330
43C
100
AcDbEntity
  8
3D-P-SANR-FIXT
100
AcDbVertex
100
AcDbPolyFaceMeshVertex
 10
1.558058202266692
 20
-6.62499976158142
 30
7.566941499710082
 70
   192
  0
VERTEX
  5
440
330
43C
100
AcDbEntity
  8
3D-P-SANR-FIXT
100
AcDbVertex
100
AcDbPolyFaceMeshVertex
 10
1.687499999999999
 20
-6.62499976158142
 30
7.666266202926634
 70
   192
  0
VERTEX
  5
441
330
43C
100
AcDbEntity
  8
3D-P-SANR-FIXT
100
AcDbVertex
100
AcDbPolyFaceMeshVertex
 10
1.838238179683685
 20
-6.62499976158142
 30
7.72870373725891
 70
   192
  0
VERTEX
  5
442
330
43C
100
AcDbEntity
  8
3D-P-SANR-FIXT
100
AcDbVertex
100
AcDbPolyFaceMeshVertex
 10
2.000000059604644
 20
-6.62499976158142
 30
7.74999976158142
 70
   192
  0
VERTEX
  5
443
330
43C
100
AcDbEntity
  8
3D-P-SANR-FIXT
100
AcDbVertex
100
AcDbPolyFaceMeshVertex
 10
2.161761939525603
 20
-6.62499976158142
 30
7.72870373725891
 70
   192
  0
VERTEX
  5
444
330
43C
100
AcDbEntity
  8
3D-P-SANR-FIXT
100
AcDbVertex
100
AcDbPolyFaceMeshVertex
 10
2.312499940395354
 20
-6.62499976158142
 30
7.666266202926634
 70
   192
  0
VERTEX
  5
445
330
43C
100
AcDbEntity
  8
3D-P-SANR-FIXT
100
AcDbVertex
100
AcDbPolyFaceMeshVertex
 10
2.441941738128661
 20
-6.62499976158142
 30
7.566941499710082
 70
   192
  0
VERTEX
  5
446
330
43C
100
AcDbEntity
  8
3D-P-SANR-FIXT
100
AcDbVertex
100
AcDbPolyFaceMeshVertex
 10
2.541265904903411
 20
-6.62499976158142
 30
7.437500238418578
 70
   192
  0
VERTEX
  5
447
330
43C
100
AcDbEntity
  8
3D-P-SANR-FIXT
100
AcDbVertex
100
AcDbPolyFaceMeshVertex
 10
2.603703618049621
 20
-6.62499976158142
 30
7.286762237548827
 70
   192
  0
VERTEX
  5
448
330
43C
100
AcDbEntity
  8
3D-P-SANR-FIXT
100
AcDbVertex
100
AcDbPolyFaceMeshVertex
 10
2.624999999999999
 20
-6.62499976158142
 30
7.124999999999999
 70
   192
  0
VERTEX
  5
449
330
43C
100
AcDbEntity
  8
3D-P-SANR-FIXT
100
AcDbVertex
100
AcDbPolyFaceMeshVertex
 10
2.624999999999999
 20
-0.0000000000004303
 30
7.124999999999999
 70
   192
  0
VERTEX
  5
44A
330
43C
100
AcDbEntity
  8
3D-P-SANR-FIXT
100
AcDbVertex
100
AcDbPolyFaceMeshVertex
 10
2.603703618049621
 20
-0.0000000000009912
 30
7.286762237548827
 70
   192
  0
VERTEX
  5
44B
330
43C
100
AcDbEntity
  8
3D-P-SANR-FIXT
100
AcDbVertex
100
AcDbPolyFaceMeshVertex
 10
2.541265904903411
 20
-0.0000000000009912
 30
7.437500238418578
 70
   192
  0
VERTEX
  5
44C
330
43C
100
AcDbEntity
  8
3D-P-SANR-FIXT
100
AcDbVertex
100
AcDbPolyFaceMeshVertex
 10
2.441941738128661
 20
-0.0000000000009912
 30
7.566941499710082
 70
   192
  0
VERTEX
  5
44D
330
43C
100
AcDbEntity
  8
3D-P-SANR-FIXT
100
AcDbVertex
100
AcDbPolyFaceMeshVertex
 10
2.312499940395354
 20
-0.0000000000009912
 30
7.666266202926634
 70
   192
  0
VERTEX
  5
44E
330
43C
100
AcDbEntity
  8
3D-P-SANR-FIXT
100
AcDbVertex
100
AcDbPolyFaceMeshVertex
 10
2.161761939525603
 20
-0.0000000000009912
 30
7.72870373725891
 70
   192
  0
VERTEX
  5
44F
330
43C
100
AcDbEntity
  8
3D-P-SANR-FIXT
100
AcDbVertex
100
AcDbPolyFaceMeshVertex
 10
2.000000059604644
 20
-0.0000000000009912
 30
7.74999976158142
 70
   192
  0
VERTEX
  5
450
330
43C
100
AcDbEntity
  8
3D-P-SANR-FIXT
100
AcDbVertex
100
AcDbPolyFaceMeshVertex
 10
1.838238179683685
 20
-0.0000000000009912
 30
7.72870373725891
 70
   192
  0
VERTEX
  5
451
330
43C
100
AcDbEntity
  8
3D-P-SANR-FIXT
100
AcDbVertex
100
AcDbPolyFaceMeshVertex
 10
1.687499999999999
 20
-0.0000000000009912
 30
7.666266202926634
 70
   192
  0
VERTEX
  5
452
330
43C
100
AcDbEntity
  8
3D-P-SANR-FIXT
100
AcDbVertex
100
AcDbPolyFaceMeshVertex
 10
1.558058202266692
 20
-0.0000000000009912
 30
7.566941499710082
 70
   192
  0
VERTEX
  5
453
330
43C
100
AcDbEntity
  8
3D-P-SANR-FIXT
100
AcDbVertex
100
AcDbPolyFaceMeshVertex
 10
1.45873412489891
 20
-0.0000000000009912
 30
7.437500238418578
 70
   192
  0
VERTEX
  5
454
330
43C
100
AcDbEntity
  8
3D-P-SANR-FIXT
100
AcDbVertex
100
AcDbPolyFaceMeshVertex
 10
1.396296322345733
 20
-0.0000000000009912
 30
7.286762237548827
 70
   192
  0
VERTEX
  5
455
330
43C
100
AcDbEntity
  8
3D-P-SANR-FIXT
100
AcDbVertex
100
AcDbPolyFaceMeshVertex
 10
1.375000029802322
 20
-0.0000000000009912
 30
7.124999999999999
 70
   192
  0
VERTEX
  5
456
330
43C
100
AcDbEntity
  8
3D-P-SANR-FIXT
100
AcDbVertex
100
AcDbPolyFaceMeshVertex
 10
1.375000029802322
 20
-6.62499976158142
 30
7.124999999999999
 70
   192
  0
VERTEX
  5
457
330
43C
100
AcDbEntity
  8
3D-P-SANR-FIXT
100
AcDbFaceRecord
 10
0.0
 20
0.0
 30
0.0
 70
   128
 71
     3
 72
    -2
 73
    23
 74
   -22
  0
VERTEX
  5
458
330
43C
100
AcDbEntity
  8
3D-P-SANR-FIXT
100
AcDbFaceRecord
 10
0.0
 20
0.0
 30
0.0
 70
   128
 71
     5
 72
    -4
 73
    21
 74
   -20
  0
VERTEX
  5
459
330
43C
100
AcDbEntity
  8
3D-P-SANR-FIXT
100
AcDbFaceRecord
 10
0.0
 20
0.0
 30
0.0
 70
   128
 71
     4
 72
    -3
 73
    22
 74
   -21
  0
VERTEX
  5
45A
330
43C
100
AcDbEntity
  8
3D-P-SANR-FIXT
100
AcDbFaceRecord
 10
0.0
 20
0.0
 30
0.0
 70
   128
 71
     6
 72
    -5
 73
    20
 74
   -19
  0
VERTEX
  5
45B
330
43C
100
AcDbEntity
  8
3D-P-SANR-FIXT
100
AcDbFaceRecord
 10
0.0
 20
0.0
 30
0.0
 70
   128
 71
    25
 72
   -24
 73
     1
 74
    26
  0
VERTEX
  5
45C
330
43C
100
AcDbEntity
  8
3D-P-SANR-FIXT
100
AcDbFaceRecord
 10
0.0
 20
0.0
 30
0.0
 70
   128
 71
     2
 72
    -1
 73
    24
 74
   -23
  0
VERTEX
  5
45D
330
43C
100
AcDbEntity
  8
3D-P-SANR-FIXT
100
AcDbFaceRecord
 10
0.0
 20
0.0
 30
0.0
 70
   128
 71
     8
 72
    -7
 73
    18
 74
   -17
  0
VERTEX
  5
45E
330
43C
100
AcDbEntity
  8
3D-P-SANR-FIXT
100
AcDbFaceRecord
 10
0.0
 20
0.0
 30
0.0
 70
   128
 71
     9
 72
    -8
 73
    17
 74
   -16
  0
VERTEX
  5
45F
330
43C
100
AcDbEntity
  8
3D-P-SANR-FIXT
100
AcDbFaceRecord
 10
0.0
 20
0.0
 30
0.0
 70
   128
 71
    11
 72
   -10
 73
    15
 74
   -14
  0
VERTEX
  5
460
330
43C
100
AcDbEntity
  8
3D-P-SANR-FIXT
100
AcDbFaceRecord
 10
0.0
 20
0.0
 30
0.0
 70
   128
 71
    10
 72
    -9
 73
    16
 74
   -15
  0
VERTEX
  5
461
330
43C
100
AcDbEntity
  8
3D-P-SANR-FIXT
100
AcDbFaceRecord
 10
0.0
 20
0.0
 30
0.0
 70
   128
 71
    12
 72
   -11
 73
    14
 74
    13
  0
VERTEX
  5
462
330
43C
100
AcDbEntity
  8
3D-P-SANR-FIXT
100
AcDbFaceRecord
 10
0.0
 20
0.0
 30
0.0
 70
   128
 71
    19
 72
   -18
 73
     7
 74
    -6
  0
SEQEND
  5
463
330
43C
100
AcDbEntity
  8
3D-P-SANR-FIXT
  0
POLYLINE
  5
464
330
AA
100
AcDbEntity
  8
3D-P-SANR-FIXT
100
AcDbPolyFaceMesh
 66
     1
 10
0.0
 20
0.0
 30
0.0
 70
    64
 71
    26
 72
    12
1001
REVIT
1002
{
1070
     4
1000
6241
1002
}
1002
{
1070
     2
1000
-2001160
1002
}
  0
VERTEX
  5
465
330
464
100
AcDbEntity
  8
3D-P-SANR-FIXT
100
AcDbVertex
100
AcDbPolyFaceMeshVertex
 10
-0.6037036478519439
 20
-0.0000000000009912
 30
6.96323776245117
 70
   192
  0
VERTEX
  5
466
330
464
100
AcDbEntity
  8
3D-P-SANR-FIXT
100
AcDbVertex
100
AcDbPolyFaceMeshVertex
 10
-0.5412658900022506
 20
-0.0000000000009912
 30
6.81249976158142
 70
   192
  0
VERTEX
  5
467
330
464
100
AcDbEntity
  8
3D-P-SANR-FIXT
100
AcDbVertex
100
AcDbPolyFaceMeshVertex
 10
-0.4419417232275009
 20
-0.0000000000009912
 30
6.683058500289916
 70
   192
  0
VERTEX
  5
468
330
464
100
AcDbEntity
  8
3D-P-SANR-FIXT
100
AcDbVertex
100
AcDbPolyFaceMeshVertex
 10
-0.3124999925494194
 20
-0.0000000000009912
 30
6.583733797073363
 70
   192
  0
VERTEX
  5
469
330
464
100
AcDbEntity
  8
3D-P-SANR-FIXT
100
AcDbVertex
100
AcDbPolyFaceMeshVertex
 10
-0.1617619022727012
 20
-0.0000000000009912
 30
6.521296262741087
 70
   192
  0
VERTEX
  5
46A
330
464
100
AcDbEntity
  8
3D-P-SANR-FIXT
100
AcDbVertex
100
AcDbPolyFaceMeshVertex
 10
0.0000000000003269
 20
-0.0000000000009912
 30
6.500000238418578
 70
   192
  0
VERTEX
  5
46B
330
464
100
AcDbEntity
  8
3D-P-SANR-FIXT
100
AcDbVertex
100
AcDbPolyFaceMeshVertex
 10
0.1617619022727012
 20
-0.0000000000009912
 30
6.521296262741087
 70
   192
  0
VERTEX
  5
46C
330
464
100
AcDbEntity
  8
3D-P-SANR-FIXT
100
AcDbVertex
100
AcDbPolyFaceMeshVertex
 10
0.3124999925494194
 20
-0.0000000000009912
 30
6.583733797073363
 70
   192
  0
VERTEX
  5
46D
330
464
100
AcDbEntity
  8
3D-P-SANR-FIXT
100
AcDbVertex
100
AcDbPolyFaceMeshVertex
 10
0.4419417232275009
 20
-0.0000000000009912
 30
6.683058500289916
 70
   192
  0
VERTEX
  5
46E
330
464
100
AcDbEntity
  8
3D-P-SANR-FIXT
100
AcDbVertex
100
AcDbPolyFaceMeshVertex
 10
0.5412658900022506
 20
-0.0000000000009912
 30
6.81249976158142
 70
   192
  0
VERTEX
  5
46F
330
464
100
AcDbEntity
  8
3D-P-SANR-FIXT
100
AcDbVertex
100
AcDbPolyFaceMeshVertex
 10
0.6037036478519439
 20
-0.0000000000009912
 30
6.96323776245117
 70
   192
  0
VERTEX
  5
470
330
464
100
AcDbEntity
  8
3D-P-SANR-FIXT
100
AcDbVertex
100
AcDbPolyFaceMeshVertex
 10
0.6249999850988388
 20
-0.0000000000009912
 30
7.124999999999999
 70
   192
  0
VERTEX
  5
471
330
464
100
AcDbEntity
  8
3D-P-SANR-FIXT
100
AcDbVertex
100
AcDbPolyFaceMeshVertex
 10
0.6249999850988388
 20
-6.62499976158142
 30
7.124999999999999
 70
   192
  0
VERTEX
  5
472
330
464
100
AcDbEntity
  8
3D-P-SANR-FIXT
100
AcDbVertex
100
AcDbPolyFaceMeshVertex
 10
0.6037036478519439
 20
-6.62499976158142
 30
6.96323776245117
 70
   192
  0
VERTEX
  5
473
330
464
100
AcDbEntity
  8
3D-P-SANR-FIXT
100
AcDbVertex
100
AcDbPolyFaceMeshVertex
 10
0.5412658900022506
 20
-6.62499976158142
 30
6.81249976158142
 70
   192
  0
VERTEX
  5
474
330
464
100
AcDbEntity
  8
3D-P-SANR-FIXT
100
AcDbVertex
100
AcDbPolyFaceMeshVertex
 10
0.4419417232275009
 20
-6.62499976158142
 30
6.683058500289916
 70
   192
  0
VERTEX
  5
475
330
464
100
AcDbEntity
  8
3D-P-SANR-FIXT
100
AcDbVertex
100
AcDbPolyFaceMeshVertex
 10
0.3124999925494194
 20
-6.62499976158142
 30
6.583733797073363
 70
   192
  0
VERTEX
  5
476
330
464
100
AcDbEntity
  8
3D-P-SANR-FIXT
100
AcDbVertex
100
AcDbPolyFaceMeshVertex
 10
0.1617619022727012
 20
-6.62499976158142
 30
6.521296262741087
 70
   192
  0
VERTEX
  5
477
330
464
100
AcDbEntity
  8
3D-P-SANR-FIXT
100
AcDbVertex
100
AcDbPolyFaceMeshVertex
 10
0.0000000000003285
 20
-6.62499976158142
 30
6.500000238418578
 70
   192
  0
VERTEX
  5
478
330
464
100
AcDbEntity
  8
3D-P-SANR-FIXT
100
AcDbVertex
100
AcDbPolyFaceMeshVertex
 10
-0.1617619022727012
 20
-6.62499976158142
 30
6.521296262741087
 70
   192
  0
VERTEX
  5
479
330
464
100
AcDbEntity
  8
3D-P-SANR-FIXT
100
AcDbVertex
100
AcDbPolyFaceMeshVertex
 10
-0.3124999925494194
 20
-6.62499976158142
 30
6.583733797073363
 70
   192
  0
VERTEX
  5
47A
330
464
100
AcDbEntity
  8
3D-P-SANR-FIXT
100
AcDbVertex
100
AcDbPolyFaceMeshVertex
 10
-0.4419417232275009
 20
-6.62499976158142
 30
6.683058500289916
 70
   192
  0
VERTEX
  5
47B
330
464
100
AcDbEntity
  8
3D-P-SANR-FIXT
100
AcDbVertex
100
AcDbPolyFaceMeshVertex
 10
-0.5412658900022506
 20
-6.62499976158142
 30
6.81249976158142
 70
   192
  0
VERTEX
  5
47C
330
464
100
AcDbEntity
  8
3D-P-SANR-FIXT
100
AcDbVertex
100
AcDbPolyFaceMeshVertex
 10
-0.6037036478519439
 20
-6.62499976158142
 30
6.96323776245117
 70
   192
  0
VERTEX
  5
47D
330
464
100
AcDbEntity
  8
3D-P-SANR-FIXT
100
AcDbVertex
100
AcDbPolyFaceMeshVertex
 10
-0.6249999850988388
 20
-6.62499976158142
 30
7.124999999999999
 70
   192
  0
VERTEX
  5
47E
330
464
100
AcDbEntity
  8
3D-P-SANR-FIXT
100
AcDbVertex
100
AcDbPolyFaceMeshVertex
 10
-0.6249999850988388
 20
-0.0000000000004303
 30
7.124999999999999
 70
   192
  0
VERTEX
  5
47F
330
464
100
AcDbEntity
  8
3D-P-SANR-FIXT
100
AcDbFaceRecord
 10
0.0
 20
0.0
 30
0.0
 70
   128
 71
   -11
 72
    14
 73
    13
 74
    12
  0
VERTEX
  5
480
330
464
100
AcDbEntity
  8
3D-P-SANR-FIXT
100
AcDbFaceRecord
 10
0.0
 20
0.0
 30
0.0
 70
   128
 71
   -10
 72
    15
 73
   -14
 74
    11
  0
VERTEX
  5
481
330
464
100
AcDbEntity
  8
3D-P-SANR-FIXT
100
AcDbFaceRecord
 10
0.0
 20
0.0
 30
0.0
 70
   128
 71
    -8
 72
    17
 73
   -16
 74
     9
  0
VERTEX
  5
482
330
464
100
AcDbEntity
  8
3D-P-SANR-FIXT
100
AcDbFaceRecord
 10
0.0
 20
0.0
 30
0.0
 70
   128
 71
    -9
 72
    16
 73
   -15
 74
    10
  0
VERTEX
  5
483
330
464
100
AcDbEntity
  8
3D-P-SANR-FIXT
100
AcDbFaceRecord
 10
0.0
 20
0.0
 30
0.0
 70
   128
 71
    -7
 72
    18
 73
   -17
 74
     8
  0
VERTEX
  5
484
330
464
100
AcDbEntity
  8
3D-P-SANR-FIXT
100
AcDbFaceRecord
 10
0.0
 20
0.0
 30
0.0
 70
   128
 71
   -18
 72
     7
 73
    -6
 74
    19
  0
VERTEX
  5
485
330
464
100
AcDbEntity
  8
3D-P-SANR-FIXT
100
AcDbFaceRecord
 10
0.0
 20
0.0
 30
0.0
 70
   128
 71
    -4
 72
    21
 73
   -20
 74
     5
  0
VERTEX
  5
486
330
464
100
AcDbEntity
  8
3D-P-SANR-FIXT
100
AcDbFaceRecord
 10
0.0
 20
0.0
 30
0.0
 70
   128
 71
    -3
 72
    22
 73
   -21
 74
     4
  0
VERTEX
  5
487
330
464
100
AcDbEntity
  8
3D-P-SANR-FIXT
100
AcDbFaceRecord
 10
0.0
 20
0.0
 30
0.0
 70
   128
 71
    -1
 72
    24
 73
   -23
 74
     2
  0
VERTEX
  5
488
330
464
100
AcDbEntity
  8
3D-P-SANR-FIXT
100
AcDbFaceRecord
 10
0.0
 20
0.0
 30
0.0
 70
   128
 71
    -2
 72
    23
 73
   -22
 74
     3
  0
VERTEX
  5
489
330
464
100
AcDbEntity
  8
3D-P-SANR-FIXT
100
AcDbFaceRecord
 10
0.0
 20
0.0
 30
0.0
 70
   128
 71
    26
 72
    25
 73
   -24
 74
     1
  0
VERTEX
  5
48A
330
464
100
AcDbEntity
  8
3D-P-SANR-FIXT
100
AcDbFaceRecord
 10
0.0
 20
0.0
 30
0.0
 70
   128
 71
    -5
 72
    20
 73
   -19
 74
     6
  0
SEQEND
  5
48B
330
464
100
AcDbEntity
  8
3D-P-SANR-FIXT
  0
POLYLINE
  5
48C
330
AA
100
AcDbEntity
  8
3D-P-SANR-FIXT
100
AcDbPolyFaceMesh
 66
     1
 10
0.0
 20
0.0
 30
0.0
 70
    64
 71
    26
 72
    12
1001
REVIT
1002
{
1070
     4
1000
6241
1002
}
1002
{
1070
     2
1000
-2001160
1002
}
  0
VERTEX
  5
48D
330
48C
100
AcDbEntity
  8
3D-P-SANR-FIXT
100
AcDbVertex
100
AcDbPolyFaceMeshVertex
 10
-0.6037036478519439
 20
-6.62499976158142
 30
7.286762237548827
 70
   192
  0
VERTEX
  5
48E
330
48C
100
AcDbEntity
  8
3D-P-SANR-FIXT
100
AcDbVertex
100
AcDbPolyFaceMeshVertex
 10
-0.5412658900022506
 20
-6.62499976158142
 30
7.437500238418578
 70
   192
  0
VERTEX
  5
48F
330
48C
100
AcDbEntity
  8
3D-P-SANR-FIXT
100
AcDbVertex
100
AcDbPolyFaceMeshVertex
 10
-0.4419417232275009
 20
-6.62499976158142
 30
7.566941499710082
 70
   192
  0
VERTEX
  5
490
330
48C
100
AcDbEntity
  8
3D-P-SANR-FIXT
100
AcDbVertex
100
AcDbPolyFaceMeshVertex
 10
-0.3124999925494194
 20
-6.62499976158142
 30
7.666266202926634
 70
   192
  0
VERTEX
  5
491
330
48C
100
AcDbEntity
  8
3D-P-SANR-FIXT
100
AcDbVertex
100
AcDbPolyFaceMeshVertex
 10
-0.1617619022727012
 20
-6.62499976158142
 30
7.72870373725891
 70
   192
  0
VERTEX
  5
492
330
48C
100
AcDbEntity
  8
3D-P-SANR-FIXT
100
AcDbVertex
100
AcDbPolyFaceMeshVertex
 10
0.0000000000003213
 20
-6.62499976158142
 30
7.74999976158142
 70
   192
  0
VERTEX
  5
493
330
48C
100
AcDbEntity
  8
3D-P-SANR-FIXT
100
AcDbVertex
100
AcDbPolyFaceMeshVertex
 10
0.1617619022727012
 20
-6.62499976158142
 30
7.72870373725891
 70
   192
  0
VERTEX
  5
494
330
48C
100
AcDbEntity
  8
3D-P-SANR-FIXT
100
AcDbVertex
100
AcDbPolyFaceMeshVertex
 10
0.3124999925494194
 20
-6.62499976158142
 30
7.666266202926634
 70
   192
  0
VERTEX
  5
495
330
48C
100
AcDbEntity
  8
3D-P-SANR-FIXT
100
AcDbVertex
100
AcDbPolyFaceMeshVertex
 10
0.4419417232275009
 20
-6.62499976158142
 30
7.566941499710082
 70
   192
  0
VERTEX
  5
496
330
48C
100
AcDbEntity
  8
3D-P-SANR-FIXT
100
AcDbVertex
100
AcDbPolyFaceMeshVertex
 10
0.5412658900022506
 20
-6.62499976158142
 30
7.437500238418578
 70
   192
  0
VERTEX
  5
497
330
48C
100
AcDbEntity
  8
3D-P-SANR-FIXT
100
AcDbVertex
100
AcDbPolyFaceMeshVertex
 10
0.6037036478519439
 20
-6.62499976158142
 30
7.286762237548827
 70
   192
  0
VERTEX
  5
498
330
48C
100
AcDbEntity
  8
3D-P-SANR-FIXT
100
AcDbVertex
100
AcDbPolyFaceMeshVertex
 10
0.6249999850988388
 20
-6.62499976158142
 30
7.124999999999999
 70
   192
  0
VERTEX
  5
499
330
48C
100
AcDbEntity
  8
3D-P-SANR-FIXT
100
AcDbVertex
100
AcDbPolyFaceMeshVertex
 10
0.6249999850988388
 20
-0.0000000000004303
 30
7.124999999999999
 70
   192
  0
VERTEX
  5
49A
330
48C
100
AcDbEntity
  8
3D-P-SANR-FIXT
100
AcDbVertex
100
AcDbPolyFaceMeshVertex
 10
0.6037036478519439
 20
-0.0000000000009912
 30
7.286762237548827
 70
   192
  0
VERTEX
  5
49B
330
48C
100
AcDbEntity
  8
3D-P-SANR-FIXT
100
AcDbVertex
100
AcDbPolyFaceMeshVertex
 10
0.5412658900022506
 20
-0.0000000000009912
 30
7.437500238418578
 70
   192
  0
VERTEX
  5
49C
330
48C
100
AcDbEntity
  8
3D-P-SANR-FIXT
100
AcDbVertex
100
AcDbPolyFaceMeshVertex
 10
0.4419417232275009
 20
-0.0000000000009912
 30
7.566941499710082
 70
   192
  0
VERTEX
  5
49D
330
48C
100
AcDbEntity
  8
3D-P-SANR-FIXT
100
AcDbVertex
100
AcDbPolyFaceMeshVertex
 10
0.3124999925494194
 20
-0.0000000000009912
 30
7.666266202926634
 70
   192
  0
VERTEX
  5
49E
330
48C
100
AcDbEntity
  8
3D-P-SANR-FIXT
100
AcDbVertex
100
AcDbPolyFaceMeshVertex
 10
0.1617619022727012
 20
-0.0000000000009912
 30
7.72870373725891
 70
   192
  0
VERTEX
  5
49F
330
48C
100
AcDbEntity
  8
3D-P-SANR-FIXT
100
AcDbVertex
100
AcDbPolyFaceMeshVertex
 10
0.0000000000003235
 20
-0.0000000000009912
 30
7.74999976158142
 70
   192
  0
VERTEX
  5
4A0
330
48C
100
AcDbEntity
  8
3D-P-SANR-FIXT
100
AcDbVertex
100
AcDbPolyFaceMeshVertex
 10
-0.1617619022727012
 20
-0.0000000000009912
 30
7.72870373725891
 70
   192
  0
VERTEX
  5
4A1
330
48C
100
AcDbEntity
  8
3D-P-SANR-FIXT
100
AcDbVertex
100
AcDbPolyFaceMeshVertex
 10
-0.3124999925494194
 20
-0.0000000000009912
 30
7.666266202926634
 70
   192
  0
VERTEX
  5
4A2
330
48C
100
AcDbEntity
  8
3D-P-SANR-FIXT
100
AcDbVertex
100
AcDbPolyFaceMeshVertex
 10
-0.4419417232275009
 20
-0.0000000000009912
 30
7.566941499710082
 70
   192
  0
VERTEX
  5
4A3
330
48C
100
AcDbEntity
  8
3D-P-SANR-FIXT
100
AcDbVertex
100
AcDbPolyFaceMeshVertex
 10
-0.5412658900022506
 20
-0.0000000000009912
 30
7.437500238418578
 70
   192
  0
VERTEX
  5
4A4
330
48C
100
AcDbEntity
  8
3D-P-SANR-FIXT
100
AcDbVertex
100
AcDbPolyFaceMeshVertex
 10
-0.6037036478519439
 20
-0.0000000000009912
 30
7.286762237548827
 70
   192
  0
VERTEX
  5
4A5
330
48C
100
AcDbEntity
  8
3D-P-SANR-FIXT
100
AcDbVertex
100
AcDbPolyFaceMeshVertex
 10
-0.6249999850988388
 20
-0.0000000000009912
 30
7.124999999999999
 70
   192
  0
VERTEX
  5
4A6
330
48C
100
AcDbEntity
  8
3D-P-SANR-FIXT
100
AcDbVertex
100
AcDbPolyFaceMeshVertex
 10
-0.6249999850988388
 20
-6.62499976158142
 30
7.124999999999999
 70
   192
  0
VERTEX
  5
4A7
330
48C
100
AcDbEntity
  8
3D-P-SANR-FIXT
100
AcDbFaceRecord
 10
0.0
 20
0.0
 30
0.0
 70
   128
 71
   -23
 72
     2
 73
    -1
 74
    24
  0
VERTEX
  5
4A8
330
48C
100
AcDbEntity
  8
3D-P-SANR-FIXT
100
AcDbFaceRecord
 10
0.0
 20
0.0
 30
0.0
 70
   128
 71
   -24
 72
     1
 73
    26
 74
    25
  0
VERTEX
  5
4A9
330
48C
100
AcDbEntity
  8
3D-P-SANR-FIXT
100
AcDbFaceRecord
 10
0.0
 20
0.0
 30
0.0
 70
   128
 71
   -21
 72
     4
 73
    -3
 74
    22
  0
VERTEX
  5
4AA
330
48C
100
AcDbEntity
  8
3D-P-SANR-FIXT
100
AcDbFaceRecord
 10
0.0
 20
0.0
 30
0.0
 70
   128
 71
   -22
 72
     3
 73
    -2
 74
    23
  0
VERTEX
  5
4AB
330
48C
100
AcDbEntity
  8
3D-P-SANR-FIXT
100
AcDbFaceRecord
 10
0.0
 20
0.0
 30
0.0
 70
   128
 71
   -20
 72
     5
 73
    -4
 74
    21
  0
VERTEX
  5
4AC
330
48C
100
AcDbEntity
  8
3D-P-SANR-FIXT
100
AcDbFaceRecord
 10
0.0
 20
0.0
 30
0.0
 70
   128
 71
    -5
 72
    20
 73
   -19
 74
     6
  0
VERTEX
  5
4AD
330
48C
100
AcDbEntity
  8
3D-P-SANR-FIXT
100
AcDbFaceRecord
 10
0.0
 20
0.0
 30
0.0
 70
   128
 71
   -17
 72
     8
 73
    -7
 74
    18
  0
VERTEX
  5
4AE
330
48C
100
AcDbEntity
  8
3D-P-SANR-FIXT
100
AcDbFaceRecord
 10
0.0
 20
0.0
 30
0.0
 70
   128
 71
   -16
 72
     9
 73
    -8
 74
    17
  0
VERTEX
  5
4AF
330
48C
100
AcDbEntity
  8
3D-P-SANR-FIXT
100
AcDbFaceRecord
 10
0.0
 20
0.0
 30
0.0
 70
   128
 71
   -14
 72
    11
 73
   -10
 74
    15
  0
VERTEX
  5
4B0
330
48C
100
AcDbEntity
  8
3D-P-SANR-FIXT
100
AcDbFaceRecord
 10
0.0
 20
0.0
 30
0.0
 70
   128
 71
   -15
 72
    10
 73
    -9
 74
    16
  0
VERTEX
  5
4B1
330
48C
100
AcDbEntity
  8
3D-P-SANR-FIXT
100
AcDbFaceRecord
 10
0.0
 20
0.0
 30
0.0
 70
   128
 71
    13
 72
    12
 73
   -11
 74
    14
  0
VERTEX
  5
4B2
330
48C
100
AcDbEntity
  8
3D-P-SANR-FIXT
100
AcDbFaceRecord
 10
0.0
 20
0.0
 30
0.0
 70
   128
 71
   -18
 72
     7
 73
    -6
 74
    19
  0
SEQEND
  5
4B3
330
48C
100
AcDbEntity
  8
3D-P-SANR-FIXT
  0
POLYLINE
  5
4B4
330
AA
100
AcDbEntity
  8
3D-P-SANR-FIXT
100
AcDbPolyFaceMesh
 66
     1
 10
0.0
 20
0.0
 30
0.0
 70
    64
 71
    26
 72
    12
1001
REVIT
1002
{
1070
     4
1000
6241
1002
}
1002
{
1070
     2
1000
-2001160
1002
}
  0
VERTEX
  5
4B5
330
4B4
100
AcDbEntity
  8
3D-P-SANR-FIXT
100
AcDbVertex
100
AcDbPolyFaceMeshVertex
 10
-2.603703618049621
 20
-0.0000000000009912
 30
6.96323776245117
 70
   192
  0
VERTEX
  5
4B6
330
4B4
100
AcDbEntity
  8
3D-P-SANR-FIXT
100
AcDbVertex
100
AcDbPolyFaceMeshVertex
 10
-2.541265904903411
 20
-0.0000000000009912
 30
6.81249976158142
 70
   192
  0
VERTEX
  5
4B7
330
4B4
100
AcDbEntity
  8
3D-P-SANR-FIXT
100
AcDbVertex
100
AcDbPolyFaceMeshVertex
 10
-2.441941738128661
 20
-0.0000000000009912
 30
6.683058500289916
 70
   192
  0
VERTEX
  5
4B8
330
4B4
100
AcDbEntity
  8
3D-P-SANR-FIXT
100
AcDbVertex
100
AcDbPolyFaceMeshVertex
 10
-2.312499940395354
 20
-0.0000000000009912
 30
6.583733797073363
 70
   192
  0
VERTEX
  5
4B9
330
4B4
100
AcDbEntity
  8
3D-P-SANR-FIXT
100
AcDbVertex
100
AcDbPolyFaceMeshVertex
 10
-2.161761939525603
 20
-0.0000000000009912
 30
6.521296262741087
 70
   192
  0
VERTEX
  5
4BA
330
4B4
100
AcDbEntity
  8
3D-P-SANR-FIXT
100
AcDbVertex
100
AcDbPolyFaceMeshVertex
 10
-2.000000059604644
 20
-0.0000000000009912
 30
6.500000238418578
 70
   192
  0
VERTEX
  5
4BB
330
4B4
100
AcDbEntity
  8
3D-P-SANR-FIXT
100
AcDbVertex
100
AcDbPolyFaceMeshVertex
 10
-1.838238179683685
 20
-0.0000000000009912
 30
6.521296262741087
 70
   192
  0
VERTEX
  5
4BC
330
4B4
100
AcDbEntity
  8
3D-P-SANR-FIXT
100
AcDbVertex
100
AcDbPolyFaceMeshVertex
 10
-1.687499999999999
 20
-0.0000000000009912
 30
6.583733797073363
 70
   192
  0
VERTEX
  5
4BD
330
4B4
100
AcDbEntity
  8
3D-P-SANR-FIXT
100
AcDbVertex
100
AcDbPolyFaceMeshVertex
 10
-1.558058202266692
 20
-0.0000000000009912
 30
6.683058500289916
 70
   192
  0
VERTEX
  5
4BE
330
4B4
100
AcDbEntity
  8
3D-P-SANR-FIXT
100
AcDbVertex
100
AcDbPolyFaceMeshVertex
 10
-1.45873412489891
 20
-0.0000000000009912
 30
6.81249976158142
 70
   192
  0
VERTEX
  5
4BF
330
4B4
100
AcDbEntity
  8
3D-P-SANR-FIXT
100
AcDbVertex
100
AcDbPolyFaceMeshVertex
 10
-1.396296322345733
 20
-0.0000000000009912
 30
6.96323776245117
 70
   192
  0
VERTEX
  5
4C0
330
4B4
100
AcDbEntity
  8
3D-P-SANR-FIXT
100
AcDbVertex
100
AcDbPolyFaceMeshVertex
 10
-1.375000029802322
 20
-0.0000000000009912
 30
7.124999999999999
 70
   192
  0
VERTEX
  5
4C1
330
4B4
100
AcDbEntity
  8
3D-P-SANR-FIXT
100
AcDbVertex
100
AcDbPolyFaceMeshVertex
 10
-1.375000029802322
 20
-6.62499976158142
 30
7.124999999999999
 70
   192
  0
VERTEX
  5
4C2
330
4B4
100
AcDbEntity
  8
3D-P-SANR-FIXT
100
AcDbVertex
100
AcDbPolyFaceMeshVertex
 10
-1.396296322345733
 20
-6.62499976158142
 30
6.96323776245117
 70
   192
  0
VERTEX
  5
4C3
330
4B4
100
AcDbEntity
  8
3D-P-SANR-FIXT
100
AcDbVertex
100
AcDbPolyFaceMeshVertex
 10
-1.45873412489891
 20
-6.62499976158142
 30
6.81249976158142
 70
   192
  0
VERTEX
  5
4C4
330
4B4
100
AcDbEntity
  8
3D-P-SANR-FIXT
100
AcDbVertex
100
AcDbPolyFaceMeshVertex
 10
-1.558058202266692
 20
-6.62499976158142
 30
6.683058500289916
 70
   192
  0
VERTEX
  5
4C5
330
4B4
100
AcDbEntity
  8
3D-P-SANR-FIXT
100
AcDbVertex
100
AcDbPolyFaceMeshVertex
 10
-1.687499999999999
 20
-6.62499976158142
 30
6.583733797073363
 70
   192
  0
VERTEX
  5
4C6
330
4B4
100
AcDbEntity
  8
3D-P-SANR-FIXT
100
AcDbVertex
100
AcDbPolyFaceMeshVertex
 10
-1.838238179683685
 20
-6.62499976158142
 30
6.521296262741087
 70
   192
  0
VERTEX
  5
4C7
330
4B4
100
AcDbEntity
  8
3D-P-SANR-FIXT
100
AcDbVertex
100
AcDbPolyFaceMeshVertex
 10
-2.000000059604644
 20
-6.62499976158142
 30
6.500000238418578
 70
   192
  0
VERTEX
  5
4C8
330
4B4
100
AcDbEntity
  8
3D-P-SANR-FIXT
100
AcDbVertex
100
AcDbPolyFaceMeshVertex
 10
-2.161761939525603
 20
-6.62499976158142
 30
6.521296262741087
 70
   192
  0
VERTEX
  5
4C9
330
4B4
100
AcDbEntity
  8
3D-P-SANR-FIXT
100
AcDbVertex
100
AcDbPolyFaceMeshVertex
 10
-2.312499940395354
 20
-6.62499976158142
 30
6.583733797073363
 70
   192
  0
VERTEX
  5
4CA
330
4B4
100
AcDbEntity
  8
3D-P-SANR-FIXT
100
AcDbVertex
100
AcDbPolyFaceMeshVertex
 10
-2.441941738128661
 20
-6.62499976158142
 30
6.683058500289916
 70
   192
  0
VERTEX
  5
4CB
330
4B4
100
AcDbEntity
  8
3D-P-SANR-FIXT
100
AcDbVertex
100
AcDbPolyFaceMeshVertex
 10
-2.541265904903411
 20
-6.62499976158142
 30
6.81249976158142
 70
   192
  0
VERTEX
  5
4CC
330
4B4
100
AcDbEntity
  8
3D-P-SANR-FIXT
100
AcDbVertex
100
AcDbPolyFaceMeshVertex
 10
-2.603703618049621
 20
-6.62499976158142
 30
6.96323776245117
 70
   192
  0
VERTEX
  5
4CD
330
4B4
100
AcDbEntity
  8
3D-P-SANR-FIXT
100
AcDbVertex
100
AcDbPolyFaceMeshVertex
 10
-2.624999999999999
 20
-6.62499976158142
 30
7.124999999999999
 70
   192
  0
VERTEX
  5
4CE
330
4B4
100
AcDbEntity
  8
3D-P-SANR-FIXT
100
AcDbVertex
100
AcDbPolyFaceMeshVertex
 10
-2.624999999999999
 20
-0.0000000000004303
 30
7.124999999999999
 70
   192
  0
VERTEX
  5
4CF
330
4B4
100
AcDbEntity
  8
3D-P-SANR-FIXT
100
AcDbFaceRecord
 10
0.0
 20
0.0
 30
0.0
 70
   128
 71
   -11
 72
    14
 73
    13
 74
    12
  0
VERTEX
  5
4D0
330
4B4
100
AcDbEntity
  8
3D-P-SANR-FIXT
100
AcDbFaceRecord
 10
0.0
 20
0.0
 30
0.0
 70
   128
 71
   -10
 72
    15
 73
   -14
 74
    11
  0
VERTEX
  5
4D1
330
4B4
100
AcDbEntity
  8
3D-P-SANR-FIXT
100
AcDbFaceRecord
 10
0.0
 20
0.0
 30
0.0
 70
   128
 71
    -8
 72
    17
 73
   -16
 74
     9
  0
VERTEX
  5
4D2
330
4B4
100
AcDbEntity
  8
3D-P-SANR-FIXT
100
AcDbFaceRecord
 10
0.0
 20
0.0
 30
0.0
 70
   128
 71
    -9
 72
    16
 73
   -15
 74
    10
  0
VERTEX
  5
4D3
330
4B4
100
AcDbEntity
  8
3D-P-SANR-FIXT
100
AcDbFaceRecord
 10
0.0
 20
0.0
 30
0.0
 70
   128
 71
    -7
 72
    18
 73
   -17
 74
     8
  0
VERTEX
  5
4D4
330
4B4
100
AcDbEntity
  8
3D-P-SANR-FIXT
100
AcDbFaceRecord
 10
0.0
 20
0.0
 30
0.0
 70
   128
 71
   -18
 72
     7
 73
    -6
 74
    19
  0
VERTEX
  5
4D5
330
4B4
100
AcDbEntity
  8
3D-P-SANR-FIXT
100
AcDbFaceRecord
 10
0.0
 20
0.0
 30
0.0
 70
   128
 71
    -4
 72
    21
 73
   -20
 74
     5
  0
VERTEX
  5
4D6
330
4B4
100
AcDbEntity
  8
3D-P-SANR-FIXT
100
AcDbFaceRecord
 10
0.0
 20
0.0
 30
0.0
 70
   128
 71
    -3
 72
    22
 73
   -21
 74
     4
  0
VERTEX
  5
4D7
330
4B4
100
AcDbEntity
  8
3D-P-SANR-FIXT
100
AcDbFaceRecord
 10
0.0
 20
0.0
 30
0.0
 70
   128
 71
    -1
 72
    24
 73
   -23
 74
     2
  0
VERTEX
  5
4D8
330
4B4
100
AcDbEntity
  8
3D-P-SANR-FIXT
100
AcDbFaceRecord
 10
0.0
 20
0.0
 30
0.0
 70
   128
 71
    -2
 72
    23
 73
   -22
 74
     3
  0
VERTEX
  5
4D9
330
4B4
100
AcDbEntity
  8
3D-P-SANR-FIXT
100
AcDbFaceRecord
 10
0.0
 20
0.0
 30
0.0
 70
   128
 71
    26
 72
    25
 73
   -24
 74
     1
  0
VERTEX
  5
4DA
330
4B4
100
AcDbEntity
  8
3D-P-SANR-FIXT
100
AcDbFaceRecord
 10
0.0
 20
0.0
 30
0.0
 70
   128
 71
    -5
 72
    20
 73
   -19
 74
     6
  0
SEQEND
  5
4DB
330
4B4
100
AcDbEntity
  8
3D-P-SANR-FIXT
  0
POLYLINE
  5
4DC
330
AA
100
AcDbEntity
  8
3D-P-SANR-FIXT
100
AcDbPolyFaceMesh
 66
     1
 10
0.0
 20
0.0
 30
0.0
 70
    64
 71
    26
 72
    12
1001
REVIT
1002
{
1070
     4
1000
6241
1002
}
1002
{
1070
     2
1000
-2001160
1002
}
  0
VERTEX
  5
4DD
330
4DC
100
AcDbEntity
  8
3D-P-SANR-FIXT
100
AcDbVertex
100
AcDbPolyFaceMeshVertex
 10
-2.603703618049621
 20
-6.62499976158142
 30
7.286762237548827
 70
   192
  0
VERTEX
  5
4DE
330
4DC
100
AcDbEntity
  8
3D-P-SANR-FIXT
100
AcDbVertex
100
AcDbPolyFaceMeshVertex
 10
-2.541265904903411
 20
-6.62499976158142
 30
7.437500238418578
 70
   192
  0
VERTEX
  5
4DF
330
4DC
100
AcDbEntity
  8
3D-P-SANR-FIXT
100
AcDbVertex
100
AcDbPolyFaceMeshVertex
 10
-2.441941738128661
 20
-6.62499976158142
 30
7.566941499710082
 70
   192
  0
VERTEX
  5
4E0
330
4DC
100
AcDbEntity
  8
3D-P-SANR-FIXT
100
AcDbVertex
100
AcDbPolyFaceMeshVertex
 10
-2.312499940395354
 20
-6.62499976158142
 30
7.666266202926634
 70
   192
  0
VERTEX
  5
4E1
330
4DC
100
AcDbEntity
  8
3D-P-SANR-FIXT
100
AcDbVertex
100
AcDbPolyFaceMeshVertex
 10
-2.161761939525603
 20
-6.62499976158142
 30
7.72870373725891
 70
   192
  0
VERTEX
  5
4E2
330
4DC
100
AcDbEntity
  8
3D-P-SANR-FIXT
100
AcDbVertex
100
AcDbPolyFaceMeshVertex
 10
-2.000000059604644
 20
-6.62499976158142
 30
7.74999976158142
 70
   192
  0
VERTEX
  5
4E3
330
4DC
100
AcDbEntity
  8
3D-P-SANR-FIXT
100
AcDbVertex
100
AcDbPolyFaceMeshVertex
 10
-1.838238179683685
 20
-6.62499976158142
 30
7.72870373725891
 70
   192
  0
VERTEX
  5
4E4
330
4DC
100
AcDbEntity
  8
3D-P-SANR-FIXT
100
AcDbVertex
100
AcDbPolyFaceMeshVertex
 10
-1.687499999999999
 20
-6.62499976158142
 30
7.666266202926634
 70
   192
  0
VERTEX
  5
4E5
330
4DC
100
AcDbEntity
  8
3D-P-SANR-FIXT
100
AcDbVertex
100
AcDbPolyFaceMeshVertex
 10
-1.558058202266692
 20
-6.62499976158142
 30
7.566941499710082
 70
   192
  0
VERTEX
  5
4E6
330
4DC
100
AcDbEntity
  8
3D-P-SANR-FIXT
100
AcDbVertex
100
AcDbPolyFaceMeshVertex
 10
-1.45873412489891
 20
-6.62499976158142
 30
7.437500238418578
 70
   192
  0
VERTEX
  5
4E7
330
4DC
100
AcDbEntity
  8
3D-P-SANR-FIXT
100
AcDbVertex
100
AcDbPolyFaceMeshVertex
 10
-1.396296322345733
 20
-6.62499976158142
 30
7.286762237548827
 70
   192
  0
VERTEX
  5
4E8
330
4DC
100
AcDbEntity
  8
3D-P-SANR-FIXT
100
AcDbVertex
100
AcDbPolyFaceMeshVertex
 10
-1.375000029802322
 20
-6.62499976158142
 30
7.124999999999999
 70
   192
  0
VERTEX
  5
4E9
330
4DC
100
AcDbEntity
  8
3D-P-SANR-FIXT
100
AcDbVertex
100
AcDbPolyFaceMeshVertex
 10
-1.375000029802322
 20
-0.0000000000004303
 30
7.124999999999999
 70
   192
  0
VERTEX
  5
4EA
330
4DC
100
AcDbEntity
  8
3D-P-SANR-FIXT
100
AcDbVertex
100
AcDbPolyFaceMeshVertex
 10
-1.396296322345733
 20
-0.0000000000009912
 30
7.286762237548827
 70
   192
  0
VERTEX
  5
4EB
330
4DC
100
AcDbEntity
  8
3D-P-SANR-FIXT
100
AcDbVertex
100
AcDbPolyFaceMeshVertex
 10
-1.45873412489891
 20
-0.0000000000009912
 30
7.437500238418578
 70
   192
  0
VERTEX
  5
4EC
330
4DC
100
AcDbEntity
  8
3D-P-SANR-FIXT
100
AcDbVertex
100
AcDbPolyFaceMeshVertex
 10
-1.558058202266692
 20
-0.0000000000009912
 30
7.566941499710082
 70
   192
  0
VERTEX
  5
4ED
330
4DC
100
AcDbEntity
  8
3D-P-SANR-FIXT
100
AcDbVertex
100
AcDbPolyFaceMeshVertex
 10
-1.687499999999999
 20
-0.0000000000009912
 30
7.666266202926634
 70
   192
  0
VERTEX
  5
4EE
330
4DC
100
AcDbEntity
  8
3D-P-SANR-FIXT
100
AcDbVertex
100
AcDbPolyFaceMeshVertex
 10
-1.838238179683685
 20
-0.0000000000009912
 30
7.72870373725891
 70
   192
  0
VERTEX
  5
4EF
330
4DC
100
AcDbEntity
  8
3D-P-SANR-FIXT
100
AcDbVertex
100
AcDbPolyFaceMeshVertex
 10
-2.000000059604644
 20
-0.0000000000009912
 30
7.74999976158142
 70
   192
  0
VERTEX
  5
4F0
330
4DC
100
AcDbEntity
  8
3D-P-SANR-FIXT
100
AcDbVertex
100
AcDbPolyFaceMeshVertex
 10
-2.161761939525603
 20
-0.0000000000009912
 30
7.72870373725891
 70
   192
  0
VERTEX
  5
4F1
330
4DC
100
AcDbEntity
  8
3D-P-SANR-FIXT
100
AcDbVertex
100
AcDbPolyFaceMeshVertex
 10
-2.312499940395354
 20
-0.0000000000009912
 30
7.666266202926634
 70
   192
  0
VERTEX
  5
4F2
330
4DC
100
AcDbEntity
  8
3D-P-SANR-FIXT
100
AcDbVertex
100
AcDbPolyFaceMeshVertex
 10
-2.441941738128661
 20
-0.0000000000009912
 30
7.566941499710082
 70
   192
  0
VERTEX
  5
4F3
330
4DC
100
AcDbEntity
  8
3D-P-SANR-FIXT
100
AcDbVertex
100
AcDbPolyFaceMeshVertex
 10
-2.541265904903411
 20
-0.0000000000009912
 30
7.437500238418578
 70
   192
  0
VERTEX
  5
4F4
330
4DC
100
AcDbEntity
  8
3D-P-SANR-FIXT
100
AcDbVertex
100
AcDbPolyFaceMeshVertex
 10
-2.603703618049621
 20
-0.0000000000009912
 30
7.286762237548827
 70
   192
  0
VERTEX
  5
4F5
330
4DC
100
AcDbEntity
  8
3D-P-SANR-FIXT
100
AcDbVertex
100
AcDbPolyFaceMeshVertex
 10
-2.624999999999999
 20
-0.0000000000009912
 30
7.124999999999999
 70
   192
  0
VERTEX
  5
4F6
330
4DC
100
AcDbEntity
  8
3D-P-SANR-FIXT
100
AcDbVertex
100
AcDbPolyFaceMeshVertex
 10
-2.624999999999999
 20
-6.62499976158142
 30
7.124999999999999
 70
   192
  0
VERTEX
  5
4F7
330
4DC
100
AcDbEntity
  8
3D-P-SANR-FIXT
100
AcDbFaceRecord
 10
0.0
 20
0.0
 30
0.0
 70
   128
 71
   -23
 72
     2
 73
    -1
 74
    24
  0
VERTEX
  5
4F8
330
4DC
100
AcDbEntity
  8
3D-P-SANR-FIXT
100
AcDbFaceRecord
 10
0.0
 20
0.0
 30
0.0
 70
   128
 71
   -24
 72
     1
 73
    26
 74
    25
  0
VERTEX
  5
4F9
330
4DC
100
AcDbEntity
  8
3D-P-SANR-FIXT
100
AcDbFaceRecord
 10
0.0
 20
0.0
 30
0.0
 70
   128
 71
   -21
 72
     4
 73
    -3
 74
    22
  0
VERTEX
  5
4FA
330
4DC
100
AcDbEntity
  8
3D-P-SANR-FIXT
100
AcDbFaceRecord
 10
0.0
 20
0.0
 30
0.0
 70
   128
 71
   -22
 72
     3
 73
    -2
 74
    23
  0
VERTEX
  5
4FB
330
4DC
100
AcDbEntity
  8
3D-P-SANR-FIXT
100
AcDbFaceRecord
 10
0.0
 20
0.0
 30
0.0
 70
   128
 71
   -20
 72
     5
 73
    -4
 74
    21
  0
VERTEX
  5
4FC
330
4DC
100
AcDbEntity
  8
3D-P-SANR-FIXT
100
AcDbFaceRecord
 10
0.0
 20
0.0
 30
0.0
 70
   128
 71
    -5
 72
    20
 73
   -19
 74
     6
  0
VERTEX
  5
4FD
330
4DC
100
AcDbEntity
  8
3D-P-SANR-FIXT
100
AcDbFaceRecord
 10
0.0
 20
0.0
 30
0.0
 70
   128
 71
   -17
 72
     8
 73
    -7
 74
    18
  0
VERTEX
  5
4FE
330
4DC
100
AcDbEntity
  8
3D-P-SANR-FIXT
100
AcDbFaceRecord
 10
0.0
 20
0.0
 30
0.0
 70
   128
 71
   -16
 72
     9
 73
    -8
 74
    17
  0
VERTEX
  5
4FF
330
4DC
100
AcDbEntity
  8
3D-P-SANR-FIXT
100
AcDbFaceRecord
 10
0.0
 20
0.0
 30
0.0
 70
   128
 71
   -14
 72
    11
 73
   -10
 74
    15
  0
VERTEX
  5
500
330
4DC
100
AcDbEntity
  8
3D-P-SANR-FIXT
100
AcDbFaceRecord
 10
0.0
 20
0.0
 30
0.0
 70
   128
 71
   -15
 72
    10
 73
    -9
 74
    16
  0
VERTEX
  5
501
330
4DC
100
AcDbEntity
  8
3D-P-SANR-FIXT
100
AcDbFaceRecord
 10
0.0
 20
0.0
 30
0.0
 70
   128
 71
    13
 72
    12
 73
   -11
 74
    14
  0
VERTEX
  5
502
330
4DC
100
AcDbEntity
  8
3D-P-SANR-FIXT
100
AcDbFaceRecord
 10
0.0
 20
0.0
 30
0.0
 70
   128
 71
   -18
 72
     7
 73
    -6
 74
    19
  0
SEQEND
  5
503
330
4DC
100
AcDbEntity
  8
3D-P-SANR-FIXT
  0
ENDBLK
  5
505
330
AA
100
AcDbEntity
  8
0
100
AcDbBlockEnd
  0
ENDSEC
  0
SECTION
  2
ENTITIES
  0
POLYLINE
  5
80
330
75
100
AcDbEntity
  8
3D-P-SANR-FIXT
100
AcDbPolyFaceMesh
 66
     1
 10
0.0
 20
0.0
 30
0.0
 70
    64
 71
     4
 72
     1
1001
REVIT
1002
{
1070
     1
1000
1537
1002
}
1002
{
1070
     2
1000
-2001160
1002
}
  0
VERTEX
  5
81
330
80
100
AcDbEntity
  8
3D-P-SANR-FIXT
100
AcDbVertex
100
AcDbPolyFaceMeshVertex
 10
47.99999999999999
 20
47.99999999999999
 30
-0.0000000000000746
 70
   192
  0
VERTEX
  5
82
330
80
100
AcDbEntity
  8
3D-P-SANR-FIXT
100
AcDbVertex
100
AcDbPolyFaceMeshVertex
 10
-47.99999999999999
 20
47.99999999999999
 30
-0.0000000000000746
 70
   192
  0
VERTEX
  5
83
330
80
100
AcDbEntity
  8
3D-P-SANR-FIXT
100
AcDbVertex
100
AcDbPolyFaceMeshVertex
 10
-47.99999999999999
 20
-47.99999999999999
 30
-0.0000000000000746
 70
   192
  0
VERTEX
  5
84
330
80
100
AcDbEntity
  8
3D-P-SANR-FIXT
100
AcDbVertex
100
AcDbPolyFaceMeshVertex
 10
47.99999999999999
 20
-47.99999999999999
 30
-0.0000000000000746
 70
   192
  0
VERTEX
  5
85
330
80
100
AcDbEntity
  8
3D-P-SANR-FIXT
100
AcDbFaceRecord
 10
0.0
 20
0.0
 30
0.0
 70
   128
 71
     4
 72
     1
 73
     2
 74
     3
  0
SEQEND
  5
86
330
80
100
AcDbEntity
  8
3D-P-SANR-FIXT
  0
POLYLINE
  5
87
330
75
100
AcDbEntity
  8
3D-P-SANR-FIXT
100
AcDbPolyFaceMesh
 66
     1
 10
0.0
 20
0.0
 30
0.0
 70
    64
 71
     4
 72
     1
1001
REVIT
1002
{
1070
     1
1000
1537
1002
}
1002
{
1070
     2
1000
-2001160
1002
}
  0
VERTEX
  5
88
330
87
100
AcDbEntity
  8
3D-P-SANR-FIXT
100
AcDbVertex
100
AcDbPolyFaceMeshVertex
 10
47.99999999999999
 20
47.99999999999999
 30
-12.0
 70
   192
  0
VERTEX
  5
89
330
87
100
AcDbEntity
  8
3D-P-SANR-FIXT
100
AcDbVertex
100
AcDbPolyFaceMeshVertex
 10
47.99999999999999
 20
-47.99999999999999
 30
-12.0
 70
   192
  0
VERTEX
  5
8A
330
87
100
AcDbEntity
  8
3D-P-SANR-FIXT
100
AcDbVertex
100
AcDbPolyFaceMeshVertex
 10
-47.99999999999999
 20
-47.99999999999999
 30
-12.0
 70
   192
  0
VERTEX
  5
8B
330
87
100
AcDbEntity
  8
3D-P-SANR-FIXT
100
AcDbVertex
100
AcDbPolyFaceMeshVertex
 10
-47.99999999999999
 20
47.99999999999999
 30
-12.0
 70
   192
  0
VERTEX
  5
8C
330
87
100
AcDbEntity
  8
3D-P-SANR-FIXT
100
AcDbFaceRecord
 10
0.0
 20
0.0
 30
0.0
 70
   128
 71
     3
 72
     4
 73
     1
 74
     2
  0
SEQEND
  5
8D
330
87
100
AcDbEntity
  8
3D-P-SANR-FIXT
  0
POLYLINE
  5
8E
330
75
100
AcDbEntity
  8
3D-P-SANR-FIXT
100
AcDbPolyFaceMesh
 66
     1
 10
0.0
 20
0.0
 30
0.0
 70
    64
 71
     4
 72
     1
1001
REVIT
1002
{
1070
     1
1000
1537
1002
}
1002
{
1070
     2
1000
-2001160
1002
}
  0
VERTEX
  5
8F
330
8E
100
AcDbEntity
  8
3D-P-SANR-FIXT
100
AcDbVertex
100
AcDbPolyFaceMeshVertex
 10
-47.99999999999999
 20
47.99999999999999
 30
-0.0000000000000746
 70
   192
  0
VERTEX
  5
90
330
8E
100
AcDbEntity
  8
3D-P-SANR-FIXT
100
AcDbVertex
100
AcDbPolyFaceMeshVertex
 10
47.99999999999999
 20
47.99999999999999
 30
-0.0000000000000746
 70
   192
  0
VERTEX
  5
91
330
8E
100
AcDbEntity
  8
3D-P-SANR-FIXT
100
AcDbVertex
100
AcDbPolyFaceMeshVertex
 10
47.99999999999999
 20
47.99999999999999
 30
-12.0
 70
   192
  0
VERTEX
  5
92
330
8E
100
AcDbEntity
  8
3D-P-SANR-FIXT
100
AcDbVertex
100
AcDbPolyFaceMeshVertex
 10
-47.99999999999999
 20
47.99999999999999
 30
-12.0
 70
   192
  0
VERTEX
  5
93
330
8E
100
AcDbEntity
  8
3D-P-SANR-FIXT
100
AcDbFaceRecord
 10
0.0
 20
0.0
 30
0.0
 70
   128
 71
     1
 72
     2
 73
     3
 74
     4
  0
SEQEND
  5
94
330
8E
100
AcDbEntity
  8
3D-P-SANR-FIXT
  0
POLYLINE
  5
95
330
75
100
AcDbEntity
  8
3D-P-SANR-FIXT
100
AcDbPolyFaceMesh
 66
     1
 10
0.0
 20
0.0
 30
0.0
 70
    64
 71
     4
 72
     1
1001
REVIT
1002
{
1070
     1
1000
1537
1002
}
1002
{
1070
     2
1000
-2001160
1002
}
  0
VERTEX
  5
96
330
95
100
AcDbEntity
  8
3D-P-SANR-FIXT
100
AcDbVertex
100
AcDbPolyFaceMeshVertex
 10
-47.99999999999999
 20
-47.99999999999999
 30
-0.0000000000000746
 70
   192
  0
VERTEX
  5
97
330
95
100
AcDbEntity
  8
3D-P-SANR-FIXT
100
AcDbVertex
100
AcDbPolyFaceMeshVertex
 10
-47.99999999999999
 20
47.99999999999999
 30
-0.0000000000000746
 70
   192
  0
VERTEX
  5
98
330
95
100
AcDbEntity
  8
3D-P-SANR-FIXT
100
AcDbVertex
100
AcDbPolyFaceMeshVertex
 10
-47.99999999999999
 20
47.99999999999999
 30
-12.0
 70
   192
  0
VERTEX
  5
99
330
95
100
AcDbEntity
  8
3D-P-SANR-FIXT
100
AcDbVertex
100
AcDbPolyFaceMeshVertex
 10
-47.99999999999999
 20
-47.99999999999999
 30
-12.0
 70
   192
  0
VERTEX
  5
9A
330
95
100
AcDbEntity
  8
3D-P-SANR-FIXT
100
AcDbFaceRecord
 10
0.0
 20
0.0
 30
0.0
 70
   128
 71
     1
 72
     2
 73
     3
 74
     4
  0
SEQEND
  5
9B
330
95
100
AcDbEntity
  8
3D-P-SANR-FIXT
  0
POLYLINE
  5
9C
330
75
100
AcDbEntity
  8
3D-P-SANR-FIXT
100
AcDbPolyFaceMesh
 66
     1
 10
0.0
 20
0.0
 30
0.0
 70
    64
 71
     4
 72
     1
1001
REVIT
1002
{
1070
     1
1000
1537
1002
}
1002
{
1070
     2
1000
-2001160
1002
}
  0
VERTEX
  5
9D
330
9C
100
AcDbEntity
  8
3D-P-SANR-FIXT
100
AcDbVertex
100
AcDbPolyFaceMeshVertex
 10
47.99999999999999
 20
-47.99999999999999
 30
-0.0000000000000746
 70
   192
  0
VERTEX
  5
9E
330
9C
100
AcDbEntity
  8
3D-P-SANR-FIXT
100
AcDbVertex
100
AcDbPolyFaceMeshVertex
 10
-47.99999999999999
 20
-47.99999999999999
 30
-0.0000000000000746
 70
   192
  0
VERTEX
  5
9F
330
9C
100
AcDbEntity
  8
3D-P-SANR-FIXT
100
AcDbVertex
100
AcDbPolyFaceMeshVertex
 10
-47.99999999999999
 20
-47.99999999999999
 30
-12.0
 70
   192
  0
VERTEX
  5
A0
330
9C
100
AcDbEntity
  8
3D-P-SANR-FIXT
100
AcDbVertex
100
AcDbPolyFaceMeshVertex
 10
47.99999999999999
 20
-47.99999999999999
 30
-12.0
 70
   192
  0
VERTEX
  5
A1
330
9C
100
AcDbEntity
  8
3D-P-SANR-FIXT
100
AcDbFaceRecord
 10
0.0
 20
0.0
 30
0.0
 70
   128
 71
     1
 72
     2
 73
     3
 74
     4
  0
SEQEND
  5
A2
330
9C
100
AcDbEntity
  8
3D-P-SANR-FIXT
  0
POLYLINE
  5
A3
330
75
100
AcDbEntity
  8
3D-P-SANR-FIXT
100
AcDbPolyFaceMesh
 66
     1
 10
0.0
 20
0.0
 30
0.0
 70
    64
 71
     4
 72
     1
1001
REVIT
1002
{
1070
     1
1000
1537
1002
}
1002
{
1070
     2
1000
-2001160
1002
}
  0
VERTEX
  5
A4
330
A3
100
AcDbEntity
  8
3D-P-SANR-FIXT
100
AcDbVertex
100
AcDbPolyFaceMeshVertex
 10
47.99999999999999
 20
47.99999999999999
 30
-0.0000000000000746
 70
   192
  0
VERTEX
  5
A5
330
A3
100
AcDbEntity
  8
3D-P-SANR-FIXT
100
AcDbVertex
100
AcDbPolyFaceMeshVertex
 10
47.99999999999999
 20
-47.99999999999999
 30
-0.0000000000000746
 70
   192
  0
VERTEX
  5
A6
330
A3
100
AcDbEntity
  8
3D-P-SANR-FIXT
100
AcDbVertex
100
AcDbPolyFaceMeshVertex
 10
47.99999999999999
 20
-47.99999999999999
 30
-12.0
 70
   192
  0
VERTEX
  5
A7
330
A3
100
AcDbEntity
  8
3D-P-SANR-FIXT
100
AcDbVertex
100
AcDbPolyFaceMeshVertex
 10
47.99999999999999
 20
47.99999999999999
 30
-12.0
 70
   192
  0
VERTEX
  5
A8
330
A3
100
AcDbEntity
  8
3D-P-SANR-FIXT
100
AcDbFaceRecord
 10
0.0
 20
0.0
 30
0.0
 70
   128
 71
     1
 72
     2
 73
     3
 74
     4
  0
SEQEND
  5
A9
330
A3
100
AcDbEntity
  8
3D-P-SANR-FIXT
  0
INSERT
  5
506
330
75
100
AcDbEntity
  8
0
100
AcDbBlockReference
  2
FamilyGeomCombi_698-View 10
 10
0.0
 20
0.0
 30
0.0
  0
POLYLINE
  5
507
330
75
100
AcDbEntity
  8
3D-P-SANR-FIXT
100
AcDbPolyFaceMesh
 66
     1
 10
0.0
 20
0.0
 30
0.0
 70
    64
 71
    72
 72
    40
1001
REVIT
1002
{
1070
     1
1000
14316
1002
}
1002
{
1070
     4
1000
14599
1002
}
1002
{
1070
     2
1000
-2001160
1002
}
  0
VERTEX
  5
508
330
507
100
AcDbEntity
  8
3D-P-SANR-FIXT
100
AcDbVertex
100
AcDbPolyFaceMeshVertex
 10
3.812500119209289
 20
-8.999999999999998
 30
-0.0000000000012852
 70
   192
  0
VERTEX
  5
509
330
507
100
AcDbEntity
  8
3D-P-SANR-FIXT
100
AcDbVertex
100
AcDbPolyFaceMeshVertex
 10
3.818888783454894
 20
-9.048528671264646
 30
-0.0000000000012855
 70
   192
  0
VERTEX
  5
50A
330
507
100
AcDbEntity
  8
3D-P-SANR-FIXT
100
AcDbVertex
100
AcDbPolyFaceMeshVertex
 10
3.837620258331298
 20
-9.093749999999998
 30
-0.0000000000012858
 70
   192
  0
VERTEX
  5
50B
330
507
100
AcDbEntity
  8
3D-P-SANR-FIXT
100
AcDbVertex
100
AcDbPolyFaceMeshVertex
 10
3.867417454719543
 20
-9.132582664489744
 30
-0.0000000000012861
 70
   192
  0
VERTEX
  5
50C
330
507
100
AcDbEntity
  8
3D-P-SANR-FIXT
100
AcDbVertex
100
AcDbPolyFaceMeshVertex
 10
3.906250119209289
 20
-9.16237950325012
 30
-0.0000000000012863
 70
   192
  0
VERTEX
  5
50D
330
507
100
AcDbEntity
  8
3D-P-SANR-FIXT
100
AcDbVertex
100
AcDbPolyFaceMeshVertex
 10
3.95147144794464
 20
-9.181111335754392
 30
-0.0000000000012864
 70
   192
  0
VERTEX
  5
50E
330
507
100
AcDbEntity
  8
3D-P-SANR-FIXT
100
AcDbVertex
100
AcDbPolyFaceMeshVertex
 10
4.000000119209288
 20
-9.187499999999998
 30
-0.0000000000012864
 70
   192
  0
VERTEX
  5
50F
330
507
100
AcDbEntity
  8
3D-P-SANR-FIXT
100
AcDbVertex
100
AcDbPolyFaceMeshVertex
 10
4.048528432846068
 20
-9.181111335754392
 30
-0.0000000000012864
 70
   192
  0
VERTEX
  5
510
330
507
100
AcDbEntity
  8
3D-P-SANR-FIXT
100
AcDbVertex
100
AcDbPolyFaceMeshVertex
 10
4.093750119209288
 20
-9.16237950325012
 30
-0.0000000000012863
 70
   192
  0
VERTEX
  5
511
330
507
100
AcDbEntity
  8
3D-P-SANR-FIXT
100
AcDbVertex
100
AcDbPolyFaceMeshVertex
 10
4.132582426071166
 20
-9.132582664489744
 30
-0.000000000001286
 70
   192
  0
VERTEX
  5
512
330
507
100
AcDbEntity
  8
3D-P-SANR-FIXT
100
AcDbVertex
100
AcDbPolyFaceMeshVertex
 10
4.16237962245941
 20
-9.093749999999998
 30
-0.0000000000012858
 70
   192
  0
VERTEX
  5
513
330
507
100
AcDbEntity
  8
3D-P-SANR-FIXT
100
AcDbVertex
100
AcDbPolyFaceMeshVertex
 10
4.181111097335814
 20
-9.048528671264646
 30
-0.0000000000012855
 70
   192
  0
VERTEX
  5
514
330
507
100
AcDbEntity
  8
3D-P-SANR-FIXT
100
AcDbVertex
100
AcDbPolyFaceMeshVertex
 10
4.187500119209288
 20
-8.999999999999998
 30
-0.0000000000012851
 70
   192
  0
VERTEX
  5
515
330
507
100
AcDbEntity
  8
3D-P-SANR-FIXT
100
AcDbVertex
100
AcDbPolyFaceMeshVertex
 10
4.181111097335814
 20
-8.951471328735349
 30
-0.0000000000012848
 70
   192
  0
VERTEX
  5
516
330
507
100
AcDbEntity
  8
3D-P-SANR-FIXT
100
AcDbVertex
100
AcDbPolyFaceMeshVertex
 10
4.16237962245941
 20
-8.906249999999998
 30
-0.0000000000012845
 70
   192
  0
VERTEX
  5
517
330
507
100
AcDbEntity
  8
3D-P-SANR-FIXT
100
AcDbVertex
100
AcDbPolyFaceMeshVertex
 10
4.132582426071166
 20
-8.867417335510252
 30
-0.0000000000012842
 70
   192
  0
VERTEX
  5
518
330
507
100
AcDbEntity
  8
3D-P-SANR-FIXT
100
AcDbVertex
100
AcDbPolyFaceMeshVertex
 10
4.093750119209288
 20
-8.837620496749876
 30
-0.000000000001284
 70
   192
  0
VERTEX
  5
519
330
507
100
AcDbEntity
  8
3D-P-SANR-FIXT
100
AcDbVertex
100
AcDbPolyFaceMeshVertex
 10
4.048528432846068
 20
-8.818888664245603
 30
-0.0000000000012839
 70
   192
  0
VERTEX
  5
51A
330
507
100
AcDbEntity
  8
3D-P-SANR-FIXT
100
AcDbVertex
100
AcDbPolyFaceMeshVertex
 10
4.000000119209288
 20
-8.812499999999998
 30
-0.0000000000012839
 70
   192
  0
VERTEX
  5
51B
330
507
100
AcDbEntity
  8
3D-P-SANR-FIXT
100
AcDbVertex
100
AcDbPolyFaceMeshVertex
 10
3.95147144794464
 20
-8.818888664245603
 30
-0.0000000000012839
 70
   192
  0
VERTEX
  5
51C
330
507
100
AcDbEntity
  8
3D-P-SANR-FIXT
100
AcDbVertex
100
AcDbPolyFaceMeshVertex
 10
3.906250119209289
 20
-8.837620496749876
 30
-0.0000000000012841
 70
   192
  0
VERTEX
  5
51D
330
507
100
AcDbEntity
  8
3D-P-SANR-FIXT
100
AcDbVertex
100
AcDbPolyFaceMeshVertex
 10
3.867417454719543
 20
-8.867417335510252
 30
-0.0000000000012843
 70
   192
  0
VERTEX
  5
51E
330
507
100
AcDbEntity
  8
3D-P-SANR-FIXT
100
AcDbVertex
100
AcDbPolyFaceMeshVertex
 10
3.837620258331298
 20
-8.906249999999998
 30
-0.0000000000012845
 70
   192
  0
VERTEX
  5
51F
330
507
100
AcDbEntity
  8
3D-P-SANR-FIXT
100
AcDbVertex
100
AcDbPolyFaceMeshVertex
 10
3.818888783454894
 20
-8.951471328735349
 30
-0.0000000000012849
 70
   192
  0
VERTEX
  5
520
330
507
100
AcDbEntity
  8
3D-P-SANR-FIXT
100
AcDbVertex
100
AcDbPolyFaceMeshVertex
 10
-0.6249999850988388
 20
-11.4375
 30
-0.0000000000013023
 70
   192
  0
VERTEX
  5
521
330
507
100
AcDbEntity
  8
3D-P-SANR-FIXT
100
AcDbVertex
100
AcDbPolyFaceMeshVertex
 10
-0.6037036478519439
 20
-11.59926223754882
 30
-0.0000000000013034
 70
   192
  0
VERTEX
  5
522
330
507
100
AcDbEntity
  8
3D-P-SANR-FIXT
100
AcDbVertex
100
AcDbPolyFaceMeshVertex
 10
-0.5412658900022506
 20
-11.75000023841858
 30
-0.0000000000013044
 70
   192
  0
VERTEX
  5
523
330
507
100
AcDbEntity
  8
3D-P-SANR-FIXT
100
AcDbVertex
100
AcDbPolyFaceMeshVertex
 10
-0.4419417232275009
 20
-11.87944149971008
 30
-0.0000000000013053
 70
   192
  0
VERTEX
  5
524
330
507
100
AcDbEntity
  8
3D-P-SANR-FIXT
100
AcDbVertex
100
AcDbPolyFaceMeshVertex
 10
-0.3124999925494194
 20
-11.97876620292663
 30
-0.0000000000013059
 70
   192
  0
VERTEX
  5
525
330
507
100
AcDbEntity
  8
3D-P-SANR-FIXT
100
AcDbVertex
100
AcDbPolyFaceMeshVertex
 10
-0.1617619022727012
 20
-12.04120302200317
 30
-0.0000000000013063
 70
   192
  0
VERTEX
  5
526
330
507
100
AcDbEntity
  8
3D-P-SANR-FIXT
100
AcDbVertex
100
AcDbPolyFaceMeshVertex
 10
0.0000000000007427
 20
-12.06250047683715
 30
-0.0000000000013064
 70
   192
  0
VERTEX
  5
527
330
507
100
AcDbEntity
  8
3D-P-SANR-FIXT
100
AcDbVertex
100
AcDbPolyFaceMeshVertex
 10
0.1617619022727012
 20
-12.04120302200317
 30
-0.0000000000013063
 70
   192
  0
VERTEX
  5
528
330
507
100
AcDbEntity
  8
3D-P-SANR-FIXT
100
AcDbVertex
100
AcDbPolyFaceMeshVertex
 10
0.3124999925494194
 20
-11.97876620292663
 30
-0.0000000000013058
 70
   192
  0
VERTEX
  5
529
330
507
100
AcDbEntity
  8
3D-P-SANR-FIXT
100
AcDbVertex
100
AcDbPolyFaceMeshVertex
 10
0.4419417232275009
 20
-11.87944149971008
 30
-0.0000000000013051
 70
   192
  0
VERTEX
  5
52A
330
507
100
AcDbEntity
  8
3D-P-SANR-FIXT
100
AcDbVertex
100
AcDbPolyFaceMeshVertex
 10
0.5412658900022506
 20
-11.75000023841858
 30
-0.0000000000013043
 70
   192
  0
VERTEX
  5
52B
330
507
100
AcDbEntity
  8
3D-P-SANR-FIXT
100
AcDbVertex
100
AcDbPolyFaceMeshVertex
 10
0.6037036478519439
 20
-11.59926223754882
 30
-0.0000000000013032
 70
   192
  0
VERTEX
  5
52C
330
507
100
AcDbEntity
  8
3D-P-SANR-FIXT
100
AcDbVertex
100
AcDbPolyFaceMeshVertex
 10
0.6249999850988388
 20
-11.4375
 30
-0.0000000000013021
 70
   192
  0
VERTEX
  5
52D
330
507
100
AcDbEntity
  8
3D-P-SANR-FIXT
100
AcDbVertex
100
AcDbPolyFaceMeshVertex
 10
0.6037036478519439
 20
-11.27573776245117
 30
-0.000000000001301
 70
   192
  0
VERTEX
  5
52E
330
507
100
AcDbEntity
  8
3D-P-SANR-FIXT
100
AcDbVertex
100
AcDbPolyFaceMeshVertex
 10
0.5412658900022506
 20
-11.12499976158142
 30
-0.0000000000013
 70
   192
  0
VERTEX
  5
52F
330
507
100
AcDbEntity
  8
3D-P-SANR-FIXT
100
AcDbVertex
100
AcDbPolyFaceMeshVertex
 10
0.4419417232275009
 20
-10.99555850028991
 30
-0.0000000000012991
 70
   192
  0
VERTEX
  5
530
330
507
100
AcDbEntity
  8
3D-P-SANR-FIXT
100
AcDbVertex
100
AcDbPolyFaceMeshVertex
 10
0.3124999925494194
 20
-10.89623379707336
 30
-0.0000000000012985
 70
   192
  0
VERTEX
  5
531
330
507
100
AcDbEntity
  8
3D-P-SANR-FIXT
100
AcDbVertex
100
AcDbPolyFaceMeshVertex
 10
0.1617619022727012
 20
-10.83379626274108
 30
-0.0000000000012981
 70
   192
  0
VERTEX
  5
532
330
507
100
AcDbEntity
  8
3D-P-SANR-FIXT
100
AcDbVertex
100
AcDbPolyFaceMeshVertex
 10
0.0000000000007467
 20
-10.81250023841858
 30
-0.000000000001298
 70
   192
  0
VERTEX
  5
533
330
507
100
AcDbEntity
  8
3D-P-SANR-FIXT
100
AcDbVertex
100
AcDbPolyFaceMeshVertex
 10
-0.1617619022727012
 20
-10.83379626274108
 30
-0.0000000000012981
 70
   192
  0
VERTEX
  5
534
330
507
100
AcDbEntity
  8
3D-P-SANR-FIXT
100
AcDbVertex
100
AcDbPolyFaceMeshVertex
 10
-0.3124999925494194
 20
-10.89623379707336
 30
-0.0000000000012986
 70
   192
  0
VERTEX
  5
535
330
507
100
AcDbEntity
  8
3D-P-SANR-FIXT
100
AcDbVertex
100
AcDbPolyFaceMeshVertex
 10
-0.4419417232275009
 20
-10.99555850028991
 30
-0.0000000000012993
 70
   192
  0
VERTEX
  5
536
330
507
100
AcDbEntity
  8
3D-P-SANR-FIXT
100
AcDbVertex
100
AcDbPolyFaceMeshVertex
 10
-0.5412658900022506
 20
-11.12499976158142
 30
-0.0000000000013001
 70
   192
  0
VERTEX
  5
537
330
507
100
AcDbEntity
  8
3D-P-SANR-FIXT
100
AcDbVertex
100
AcDbPolyFaceMeshVertex
 10
-0.6037036478519439
 20
-11.27573776245117
 30
-0.0000000000013012
 70
   192
  0
VERTEX
  5
538
330
507
100
AcDbEntity
  8
3D-P-SANR-FIXT
100
AcDbVertex
100
AcDbPolyFaceMeshVertex
 10
-4.187500119209288
 20
-8.999999999999998
 30
-0.0000000000012862
 70
   192
  0
VERTEX
  5
539
330
507
100
AcDbEntity
  8
3D-P-SANR-FIXT
100
AcDbVertex
100
AcDbPolyFaceMeshVertex
 10
-4.181111097335814
 20
-9.048528671264646
 30
-0.0000000000012865
 70
   192
  0
VERTEX
  5
53A
330
507
100
AcDbEntity
  8
3D-P-SANR-FIXT
100
AcDbVertex
100
AcDbPolyFaceMeshVertex
 10
-4.16237962245941
 20
-9.093749999999998
 30
-0.0000000000012868
 70
   192
  0
VERTEX
  5
53B
330
507
100
AcDbEntity
  8
3D-P-SANR-FIXT
100
AcDbVertex
100
AcDbPolyFaceMeshVertex
 10
-4.132582426071166
 20
-9.132582664489744
 30
-0.0000000000012871
 70
   192
  0
VERTEX
  5
53C
330
507
100
AcDbEntity
  8
3D-P-SANR-FIXT
100
AcDbVertex
100
AcDbPolyFaceMeshVertex
 10
-4.093750119209288
 20
-9.16237950325012
 30
-0.0000000000012873
 70
   192
  0
VERTEX
  5
53D
330
507
100
AcDbEntity
  8
3D-P-SANR-FIXT
100
AcDbVertex
100
AcDbPolyFaceMeshVertex
 10
-4.048528432846068
 20
-9.181111335754392
 30
-0.0000000000012874
 70
   192
  0
VERTEX
  5
53E
330
507
100
AcDbEntity
  8
3D-P-SANR-FIXT
100
AcDbVertex
100
AcDbPolyFaceMeshVertex
 10
-4.000000119209288
 20
-9.187499999999998
 30
-0.0000000000012874
 70
   192
  0
VERTEX
  5
53F
330
507
100
AcDbEntity
  8
3D-P-SANR-FIXT
100
AcDbVertex
100
AcDbPolyFaceMeshVertex
 10
-3.95147144794464
 20
-9.181111335754392
 30
-0.0000000000012874
 70
   192
  0
VERTEX
  5
540
330
507
100
AcDbEntity
  8
3D-P-SANR-FIXT
100
AcDbVertex
100
AcDbPolyFaceMeshVertex
 10
-3.906250119209289
 20
-9.16237950325012
 30
-0.0000000000012872
 70
   192
  0
VERTEX
  5
541
330
507
100
AcDbEntity
  8
3D-P-SANR-FIXT
100
AcDbVertex
100
AcDbPolyFaceMeshVertex
 10
-3.867417454719543
 20
-9.132582664489744
 30
-0.000000000001287
 70
   192
  0
VERTEX
  5
542
330
507
100
AcDbEntity
  8
3D-P-SANR-FIXT
100
AcDbVertex
100
AcDbPolyFaceMeshVertex
 10
-3.837620258331298
 20
-9.093749999999998
 30
-0.0000000000012868
 70
   192
  0
VERTEX
  5
543
330
507
100
AcDbEntity
  8
3D-P-SANR-FIXT
100
AcDbVertex
100
AcDbPolyFaceMeshVertex
 10
-3.818888783454894
 20
-9.048528671264646
 30
-0.0000000000012865
 70
   192
  0
VERTEX
  5
544
330
507
100
AcDbEntity
  8
3D-P-SANR-FIXT
100
AcDbVertex
100
AcDbPolyFaceMeshVertex
 10
-3.812500119209289
 20
-8.999999999999998
 30
-0.0000000000012861
 70
   192
  0
VERTEX
  5
545
330
507
100
AcDbEntity
  8
3D-P-SANR-FIXT
100
AcDbVertex
100
AcDbPolyFaceMeshVertex
 10
-3.818888783454894
 20
-8.951471328735349
 30
-0.0000000000012858
 70
   192
  0
VERTEX
  5
546
330
507
100
AcDbEntity
  8
3D-P-SANR-FIXT
100
AcDbVertex
100
AcDbPolyFaceMeshVertex
 10
-3.837620258331298
 20
-8.906249999999998
 30
-0.0000000000012855
 70
   192
  0
VERTEX
  5
547
330
507
100
AcDbEntity
  8
3D-P-SANR-FIXT
100
AcDbVertex
100
AcDbPolyFaceMeshVertex
 10
-3.867417454719543
 20
-8.867417335510252
 30
-0.0000000000012852
 70
   192
  0
VERTEX
  5
548
330
507
100
AcDbEntity
  8
3D-P-SANR-FIXT
100
AcDbVertex
100
AcDbPolyFaceMeshVertex
 10
-3.906250119209289
 20
-8.837620496749876
 30
-0.000000000001285
 70
   192
  0
VERTEX
  5
549
330
507
100
AcDbEntity
  8
3D-P-SANR-FIXT
100
AcDbVertex
100
AcDbPolyFaceMeshVertex
 10
-3.95147144794464
 20
-8.818888664245603
 30
-0.0000000000012849
 70
   192
  0
VERTEX
  5
54A
330
507
100
AcDbEntity
  8
3D-P-SANR-FIXT
100
AcDbVertex
100
AcDbPolyFaceMeshVertex
 10
-4.000000119209288
 20
-8.812499999999998
 30
-0.0000000000012849
 70
   192
  0
VERTEX
  5
54B
330
507
100
AcDbEntity
  8
3D-P-SANR-FIXT
100
AcDbVertex
100
AcDbPolyFaceMeshVertex
 10
-4.048528432846068
 20
-8.818888664245603
 30
-0.0000000000012849
 70
   192
  0
VERTEX
  5
54C
330
507
100
AcDbEntity
  8
3D-P-SANR-FIXT
100
AcDbVertex
100
AcDbPolyFaceMeshVertex
 10
-4.093750119209288
 20
-8.837620496749876
 30
-0.0000000000012851
 70
   192
  0
VERTEX
  5
54D
330
507
100
AcDbEntity
  8
3D-P-SANR-FIXT
100
AcDbVertex
100
AcDbPolyFaceMeshVertex
 10
-4.132582426071166
 20
-8.867417335510252
 30
-0.0000000000012853
 70
   192
  0
VERTEX
  5
54E
330
507
100
AcDbEntity
  8
3D-P-SANR-FIXT
100
AcDbVertex
100
AcDbPolyFaceMeshVertex
 10
-4.16237962245941
 20
-8.906249999999998
 30
-0.0000000000012855
 70
   192
  0
VERTEX
  5
54F
330
507
100
AcDbEntity
  8
3D-P-SANR-FIXT
100
AcDbVertex
100
AcDbPolyFaceMeshVertex
 10
-4.181111097335814
 20
-8.951471328735349
 30
-0.0000000000012858
 70
   192
  0
VERTEX
  5
550
330
507
100
AcDbEntity
  8
3D-P-SANR-FIXT
100
AcDbFaceRecord
 10
0.0
 20
0.0
 30
0.0
 70
   128
 71
     7
 72
     8
 73
    -9
 74
    -5
  0
VERTEX
  5
551
330
507
100
AcDbEntity
  8
3D-P-SANR-FIXT
100
AcDbFaceRecord
 10
0.0
 20
0.0
 30
0.0
 70
   128
 71
    10
 72
    11
 73
   -12
 74
     9
  0
VERTEX
  5
552
330
507
100
AcDbEntity
  8
3D-P-SANR-FIXT
100
AcDbFaceRecord
 10
0.0
 20
0.0
 30
0.0
 70
   128
 71
    -5
 72
    -9
 73
   -12
 74
   -18
  0
VERTEX
  5
553
330
507
100
AcDbEntity
  8
3D-P-SANR-FIXT
100
AcDbFaceRecord
 10
0.0
 20
0.0
 30
0.0
 70
   128
 71
     4
 72
    -5
 73
     2
 74
     3
  0
VERTEX
  5
554
330
507
100
AcDbEntity
  8
3D-P-SANR-FIXT
100
AcDbFaceRecord
 10
0.0
 20
0.0
 30
0.0
 70
   128
 71
     5
 72
     6
 73
    -7
  0
VERTEX
  5
555
330
507
100
AcDbEntity
  8
3D-P-SANR-FIXT
100
AcDbFaceRecord
 10
0.0
 20
0.0
 30
0.0
 70
   128
 71
     1
 72
    -2
 73
    -5
 74
   -23
  0
VERTEX
  5
556
330
507
100
AcDbEntity
  8
3D-P-SANR-FIXT
100
AcDbFaceRecord
 10
0.0
 20
0.0
 30
0.0
 70
   128
 71
   -16
 72
    13
 73
    14
 74
    15
  0
VERTEX
  5
557
330
507
100
AcDbEntity
  8
3D-P-SANR-FIXT
100
AcDbFaceRecord
 10
0.0
 20
0.0
 30
0.0
 70
   128
 71
    16
 72
    17
 73
   -18
 74
   -13
  0
VERTEX
  5
558
330
507
100
AcDbEntity
  8
3D-P-SANR-FIXT
100
AcDbFaceRecord
 10
0.0
 20
0.0
 30
0.0
 70
   128
 71
   -23
 72
    -5
 73
    18
 74
   -19
  0
VERTEX
  5
559
330
507
100
AcDbEntity
  8
3D-P-SANR-FIXT
100
AcDbFaceRecord
 10
0.0
 20
0.0
 30
0.0
 70
   128
 71
   -23
 72
    21
 73
    22
  0
VERTEX
  5
55A
330
507
100
AcDbEntity
  8
3D-P-SANR-FIXT
100
AcDbFaceRecord
 10
0.0
 20
0.0
 30
0.0
 70
   128
 71
    24
 72
    -1
 73
    23
  0
VERTEX
  5
55B
330
507
100
AcDbEntity
  8
3D-P-SANR-FIXT
100
AcDbFaceRecord
 10
0.0
 20
0.0
 30
0.0
 70
   128
 71
    19
 72
    20
 73
   -21
 74
   -23
  0
VERTEX
  5
55C
330
507
100
AcDbEntity
  8
3D-P-SANR-FIXT
100
AcDbFaceRecord
 10
0.0
 20
0.0
 30
0.0
 70
   128
 71
    12
 72
   -13
 73
   -18
  0
VERTEX
  5
55D
330
507
100
AcDbEntity
  8
3D-P-SANR-FIXT
100
AcDbFaceRecord
 10
0.0
 20
0.0
 30
0.0
 70
   128
 71
   -30
 72
    32
 73
    33
 74
   -34
  0
VERTEX
  5
55E
330
507
100
AcDbEntity
  8
3D-P-SANR-FIXT
100
AcDbFaceRecord
 10
0.0
 20
0.0
 30
0.0
 70
   128
 71
   -35
 72
   -38
 73
   -30
 74
    34
  0
VERTEX
  5
55F
330
507
100
AcDbEntity
  8
3D-P-SANR-FIXT
100
AcDbFaceRecord
 10
0.0
 20
0.0
 30
0.0
 70
   128
 71
   -38
 72
    35
 73
    36
 74
    37
  0
VERTEX
  5
560
330
507
100
AcDbEntity
  8
3D-P-SANR-FIXT
100
AcDbFaceRecord
 10
0.0
 20
0.0
 30
0.0
 70
   128
 71
   -30
 72
    28
 73
    29
  0
VERTEX
  5
561
330
507
100
AcDbEntity
  8
3D-P-SANR-FIXT
100
AcDbFaceRecord
 10
0.0
 20
0.0
 30
0.0
 70
   128
 71
    30
 72
    31
 73
   -32
  0
VERTEX
  5
562
330
507
100
AcDbEntity
  8
3D-P-SANR-FIXT
100
AcDbFaceRecord
 10
0.0
 20
0.0
 30
0.0
 70
   128
 71
   -25
 72
    27
 73
   -28
 74
   -30
  0
VERTEX
  5
563
330
507
100
AcDbEntity
  8
3D-P-SANR-FIXT
100
AcDbFaceRecord
 10
0.0
 20
0.0
 30
0.0
 70
   128
 71
    25
 72
    26
 73
   -27
  0
VERTEX
  5
564
330
507
100
AcDbEntity
  8
3D-P-SANR-FIXT
100
AcDbFaceRecord
 10
0.0
 20
0.0
 30
0.0
 70
   128
 71
   -41
 72
    38
 73
    39
 74
    40
  0
VERTEX
  5
565
330
507
100
AcDbEntity
  8
3D-P-SANR-FIXT
100
AcDbFaceRecord
 10
0.0
 20
0.0
 30
0.0
 70
   128
 71
    41
 72
    42
 73
   -43
  0
VERTEX
  5
566
330
507
100
AcDbEntity
  8
3D-P-SANR-FIXT
100
AcDbFaceRecord
 10
0.0
 20
0.0
 30
0.0
 70
   128
 71
   -25
 72
   -38
 73
   -41
 74
   -43
  0
VERTEX
  5
567
330
507
100
AcDbEntity
  8
3D-P-SANR-FIXT
100
AcDbFaceRecord
 10
0.0
 20
0.0
 30
0.0
 70
   128
 71
    46
 72
    47
 73
    48
 74
   -25
  0
VERTEX
  5
568
330
507
100
AcDbEntity
  8
3D-P-SANR-FIXT
100
AcDbFaceRecord
 10
0.0
 20
0.0
 30
0.0
 70
   128
 71
   -46
 72
    44
 73
    45
  0
VERTEX
  5
569
330
507
100
AcDbEntity
  8
3D-P-SANR-FIXT
100
AcDbFaceRecord
 10
0.0
 20
0.0
 30
0.0
 70
   128
 71
   -46
 72
   -25
 73
    43
 74
   -44
  0
VERTEX
  5
56A
330
507
100
AcDbEntity
  8
3D-P-SANR-FIXT
100
AcDbFaceRecord
 10
0.0
 20
0.0
 30
0.0
 70
   128
 71
   -38
 72
   -25
 73
   -30
  0
VERTEX
  5
56B
330
507
100
AcDbEntity
  8
3D-P-SANR-FIXT
100
AcDbFaceRecord
 10
0.0
 20
0.0
 30
0.0
 70
   128
 71
    54
 72
    55
 73
   -56
 74
    53
  0
VERTEX
  5
56C
330
507
100
AcDbEntity
  8
3D-P-SANR-FIXT
100
AcDbFaceRecord
 10
0.0
 20
0.0
 30
0.0
 70
   128
 71
    56
 72
    57
 73
   -58
 74
   -63
  0
VERTEX
  5
56D
330
507
100
AcDbEntity
  8
3D-P-SANR-FIXT
100
AcDbFaceRecord
 10
0.0
 20
0.0
 30
0.0
 70
   128
 71
    58
 72
    59
 73
   -60
 74
   -62
  0
VERTEX
  5
56E
330
507
100
AcDbEntity
  8
3D-P-SANR-FIXT
100
AcDbFaceRecord
 10
0.0
 20
0.0
 30
0.0
 70
   128
 71
   -51
 72
   -56
 73
   -63
 74
   -65
  0
VERTEX
  5
56F
330
507
100
AcDbEntity
  8
3D-P-SANR-FIXT
100
AcDbFaceRecord
 10
0.0
 20
0.0
 30
0.0
 70
   128
 71
    51
 72
    52
 73
   -53
 74
   -56
  0
VERTEX
  5
570
330
507
100
AcDbEntity
  8
3D-P-SANR-FIXT
100
AcDbFaceRecord
 10
0.0
 20
0.0
 30
0.0
 70
   128
 71
    72
 72
    49
 73
    50
 74
   -51
  0
VERTEX
  5
571
330
507
100
AcDbEntity
  8
3D-P-SANR-FIXT
100
AcDbFaceRecord
 10
0.0
 20
0.0
 30
0.0
 70
   128
 71
   -63
 72
   -58
 73
    62
  0
VERTEX
  5
572
330
507
100
AcDbEntity
  8
3D-P-SANR-FIXT
100
AcDbFaceRecord
 10
0.0
 20
0.0
 30
0.0
 70
   128
 71
   -51
 72
   -65
 73
    71
 74
   -72
  0
VERTEX
  5
573
330
507
100
AcDbEntity
  8
3D-P-SANR-FIXT
100
AcDbFaceRecord
 10
0.0
 20
0.0
 30
0.0
 70
   128
 71
   -65
 72
    63
 73
    64
  0
VERTEX
  5
574
330
507
100
AcDbEntity
  8
3D-P-SANR-FIXT
100
AcDbFaceRecord
 10
0.0
 20
0.0
 30
0.0
 70
   128
 71
    65
 72
   -66
 73
   -68
 74
   -71
  0
VERTEX
  5
575
330
507
100
AcDbEntity
  8
3D-P-SANR-FIXT
100
AcDbFaceRecord
 10
0.0
 20
0.0
 30
0.0
 70
   128
 71
    70
 72
   -71
 73
    68
 74
    69
  0
VERTEX
  5
576
330
507
100
AcDbEntity
  8
3D-P-SANR-FIXT
100
AcDbFaceRecord
 10
0.0
 20
0.0
 30
0.0
 70
   128
 71
    67
 72
   -68
 73
    66
  0
VERTEX
  5
577
330
507
100
AcDbEntity
  8
3D-P-SANR-FIXT
100
AcDbFaceRecord
 10
0.0
 20
0.0
 30
0.0
 70
   128
 71
   -62
 72
    60
 73
    61
  0
SEQEND
  5
578
330
507
100
AcDbEntity
  8
3D-P-SANR-FIXT
  0
POLYLINE
  5
579
330
75
100
AcDbEntity
  8
3D-P-SANR-FIXT
100
AcDbPolyFaceMesh
 66
     1
 10
0.0
 20
0.0
 30
0.0
 70
    64
 71
    72
 72
    38
1001
REVIT
1002
{
1070
     1
1000
14316
1002
}
1002
{
1070
     4
1000
14599
1002
}
1002
{
1070
     2
1000
-2001160
1002
}
  0
VERTEX
  5
57A
330
579
100
AcDbEntity
  8
3D-P-SANR-FIXT
100
AcDbVertex
100
AcDbPolyFaceMeshVertex
 10
3.812500119209289
 20
-8.999999999999998
 30
-0.2500000074505805
 70
   192
  0
VERTEX
  5
57B
330
579
100
AcDbEntity
  8
3D-P-SANR-FIXT
100
AcDbVertex
100
AcDbPolyFaceMeshVertex
 10
3.818888783454894
 20
-8.951471328735349
 30
-0.2500000074505805
 70
   192
  0
VERTEX
  5
57C
330
579
100
AcDbEntity
  8
3D-P-SANR-FIXT
100
AcDbVertex
100
AcDbPolyFaceMeshVertex
 10
3.837620258331298
 20
-8.906249999999998
 30
-0.2500000074505805
 70
   192
  0
VERTEX
  5
57D
330
579
100
AcDbEntity
  8
3D-P-SANR-FIXT
100
AcDbVertex
100
AcDbPolyFaceMeshVertex
 10
3.867417454719543
 20
-8.867417335510252
 30
-0.2500000074505805
 70
   192
  0
VERTEX
  5
57E
330
579
100
AcDbEntity
  8
3D-P-SANR-FIXT
100
AcDbVertex
100
AcDbPolyFaceMeshVertex
 10
3.906250119209289
 20
-8.837620496749876
 30
-0.2500000074505805
 70
   192
  0
VERTEX
  5
57F
330
579
100
AcDbEntity
  8
3D-P-SANR-FIXT
100
AcDbVertex
100
AcDbPolyFaceMeshVertex
 10
3.95147144794464
 20
-8.818888664245603
 30
-0.2500000074505805
 70
   192
  0
VERTEX
  5
580
330
579
100
AcDbEntity
  8
3D-P-SANR-FIXT
100
AcDbVertex
100
AcDbPolyFaceMeshVertex
 10
4.000000119209288
 20
-8.812499999999998
 30
-0.2500000074505805
 70
   192
  0
VERTEX
  5
581
330
579
100
AcDbEntity
  8
3D-P-SANR-FIXT
100
AcDbVertex
100
AcDbPolyFaceMeshVertex
 10
4.048528432846068
 20
-8.818888664245603
 30
-0.2500000074505805
 70
   192
  0
VERTEX
  5
582
330
579
100
AcDbEntity
  8
3D-P-SANR-FIXT
100
AcDbVertex
100
AcDbPolyFaceMeshVertex
 10
4.093750119209288
 20
-8.837620496749876
 30
-0.2500000074505805
 70
   192
  0
VERTEX
  5
583
330
579
100
AcDbEntity
  8
3D-P-SANR-FIXT
100
AcDbVertex
100
AcDbPolyFaceMeshVertex
 10
4.132582426071166
 20
-8.867417335510252
 30
-0.2500000074505805
 70
   192
  0
VERTEX
  5
584
330
579
100
AcDbEntity
  8
3D-P-SANR-FIXT
100
AcDbVertex
100
AcDbPolyFaceMeshVertex
 10
4.16237962245941
 20
-8.906249999999998
 30
-0.2500000074505805
 70
   192
  0
VERTEX
  5
585
330
579
100
AcDbEntity
  8
3D-P-SANR-FIXT
100
AcDbVertex
100
AcDbPolyFaceMeshVertex
 10
4.181111097335814
 20
-8.951471328735349
 30
-0.2500000074505805
 70
   192
  0
VERTEX
  5
586
330
579
100
AcDbEntity
  8
3D-P-SANR-FIXT
100
AcDbVertex
100
AcDbPolyFaceMeshVertex
 10
4.187500119209288
 20
-8.999999999999998
 30
-0.2500000074505805
 70
   192
  0
VERTEX
  5
587
330
579
100
AcDbEntity
  8
3D-P-SANR-FIXT
100
AcDbVertex
100
AcDbPolyFaceMeshVertex
 10
4.181111097335814
 20
-9.048528671264646
 30
-0.2500000074505805
 70
   192
  0
VERTEX
  5
588
330
579
100
AcDbEntity
  8
3D-P-SANR-FIXT
100
AcDbVertex
100
AcDbPolyFaceMeshVertex
 10
4.16237962245941
 20
-9.093749999999998
 30
-0.2500000074505805
 70
   192
  0
VERTEX
  5
589
330
579
100
AcDbEntity
  8
3D-P-SANR-FIXT
100
AcDbVertex
100
AcDbPolyFaceMeshVertex
 10
4.132582426071166
 20
-9.132582664489744
 30
-0.2500000074505805
 70
   192
  0
VERTEX
  5
58A
330
579
100
AcDbEntity
  8
3D-P-SANR-FIXT
100
AcDbVertex
100
AcDbPolyFaceMeshVertex
 10
4.093750119209288
 20
-9.16237950325012
 30
-0.2500000074505805
 70
   192
  0
VERTEX
  5
58B
330
579
100
AcDbEntity
  8
3D-P-SANR-FIXT
100
AcDbVertex
100
AcDbPolyFaceMeshVertex
 10
4.048528432846068
 20
-9.181111335754392
 30
-0.2500000074505805
 70
   192
  0
VERTEX
  5
58C
330
579
100
AcDbEntity
  8
3D-P-SANR-FIXT
100
AcDbVertex
100
AcDbPolyFaceMeshVertex
 10
4.000000119209288
 20
-9.187499999999998
 30
-0.2500000074505805
 70
   192
  0
VERTEX
  5
58D
330
579
100
AcDbEntity
  8
3D-P-SANR-FIXT
100
AcDbVertex
100
AcDbPolyFaceMeshVertex
 10
3.95147144794464
 20
-9.181111335754392
 30
-0.2500000074505805
 70
   192
  0
VERTEX
  5
58E
330
579
100
AcDbEntity
  8
3D-P-SANR-FIXT
100
AcDbVertex
100
AcDbPolyFaceMeshVertex
 10
3.906250119209289
 20
-9.16237950325012
 30
-0.2500000074505805
 70
   192
  0
VERTEX
  5
58F
330
579
100
AcDbEntity
  8
3D-P-SANR-FIXT
100
AcDbVertex
100
AcDbPolyFaceMeshVertex
 10
3.867417454719543
 20
-9.132582664489744
 30
-0.2500000074505805
 70
   192
  0
VERTEX
  5
590
330
579
100
AcDbEntity
  8
3D-P-SANR-FIXT
100
AcDbVertex
100
AcDbPolyFaceMeshVertex
 10
3.837620258331298
 20
-9.093749999999998
 30
-0.2500000074505805
 70
   192
  0
VERTEX
  5
591
330
579
100
AcDbEntity
  8
3D-P-SANR-FIXT
100
AcDbVertex
100
AcDbPolyFaceMeshVertex
 10
3.818888783454894
 20
-9.048528671264646
 30
-0.2500000074505805
 70
   192
  0
VERTEX
  5
592
330
579
100
AcDbEntity
  8
3D-P-SANR-FIXT
100
AcDbVertex
100
AcDbPolyFaceMeshVertex
 10
-0.6249999850988388
 20
-11.4375
 30
-0.2500000074505805
 70
   192
  0
VERTEX
  5
593
330
579
100
AcDbEntity
  8
3D-P-SANR-FIXT
100
AcDbVertex
100
AcDbPolyFaceMeshVertex
 10
-0.6037036478519439
 20
-11.27573776245117
 30
-0.2500000074505805
 70
   192
  0
VERTEX
  5
594
330
579
100
AcDbEntity
  8
3D-P-SANR-FIXT
100
AcDbVertex
100
AcDbPolyFaceMeshVertex
 10
-0.5412658900022506
 20
-11.12499976158142
 30
-0.2500000074505805
 70
   192
  0
VERTEX
  5
595
330
579
100
AcDbEntity
  8
3D-P-SANR-FIXT
100
AcDbVertex
100
AcDbPolyFaceMeshVertex
 10
-0.4419417232275009
 20
-10.99555850028991
 30
-0.2500000074505805
 70
   192
  0
VERTEX
  5
596
330
579
100
AcDbEntity
  8
3D-P-SANR-FIXT
100
AcDbVertex
100
AcDbPolyFaceMeshVertex
 10
-0.3124999925494194
 20
-10.89623379707336
 30
-0.2500000074505805
 70
   192
  0
VERTEX
  5
597
330
579
100
AcDbEntity
  8
3D-P-SANR-FIXT
100
AcDbVertex
100
AcDbPolyFaceMeshVertex
 10
-0.1617619022727012
 20
-10.83379626274108
 30
-0.2500000074505805
 70
   192
  0
VERTEX
  5
598
330
579
100
AcDbEntity
  8
3D-P-SANR-FIXT
100
AcDbVertex
100
AcDbPolyFaceMeshVertex
 10
0.0000000000007467
 20
-10.81250023841858
 30
-0.2500000074505805
 70
   192
  0
VERTEX
  5
599
330
579
100
AcDbEntity
  8
3D-P-SANR-FIXT
100
AcDbVertex
100
AcDbPolyFaceMeshVertex
 10
0.1617619022727012
 20
-10.83379626274108
 30
-0.2500000074505805
 70
   192
  0
VERTEX
  5
59A
330
579
100
AcDbEntity
  8
3D-P-SANR-FIXT
100
AcDbVertex
100
AcDbPolyFaceMeshVertex
 10
0.3124999925494194
 20
-10.89623379707336
 30
-0.2500000074505805
 70
   192
  0
VERTEX
  5
59B
330
579
100
AcDbEntity
  8
3D-P-SANR-FIXT
100
AcDbVertex
100
AcDbPolyFaceMeshVertex
 10
0.4419417232275009
 20
-10.99555850028991
 30
-0.2500000074505805
 70
   192
  0
VERTEX
  5
59C
330
579
100
AcDbEntity
  8
3D-P-SANR-FIXT
100
AcDbVertex
100
AcDbPolyFaceMeshVertex
 10
0.5412658900022506
 20
-11.12499976158142
 30
-0.2500000074505805
 70
   192
  0
VERTEX
  5
59D
330
579
100
AcDbEntity
  8
3D-P-SANR-FIXT
100
AcDbVertex
100
AcDbPolyFaceMeshVertex
 10
0.6037036478519439
 20
-11.27573776245117
 30
-0.2500000074505805
 70
   192
  0
VERTEX
  5
59E
330
579
100
AcDbEntity
  8
3D-P-SANR-FIXT
100
AcDbVertex
100
AcDbPolyFaceMeshVertex
 10
0.6249999850988388
 20
-11.4375
 30
-0.2500000074505805
 70
   192
  0
VERTEX
  5
59F
330
579
100
AcDbEntity
  8
3D-P-SANR-FIXT
100
AcDbVertex
100
AcDbPolyFaceMeshVertex
 10
0.6037036478519439
 20
-11.59926223754882
 30
-0.2500000074505805
 70
   192
  0
VERTEX
  5
5A0
330
579
100
AcDbEntity
  8
3D-P-SANR-FIXT
100
AcDbVertex
100
AcDbPolyFaceMeshVertex
 10
0.5412658900022506
 20
-11.75000023841858
 30
-0.2500000074505805
 70
   192
  0
VERTEX
  5
5A1
330
579
100
AcDbEntity
  8
3D-P-SANR-FIXT
100
AcDbVertex
100
AcDbPolyFaceMeshVertex
 10
0.4419417232275009
 20
-11.87944149971008
 30
-0.2500000074505805
 70
   192
  0
VERTEX
  5
5A2
330
579
100
AcDbEntity
  8
3D-P-SANR-FIXT
100
AcDbVertex
100
AcDbPolyFaceMeshVertex
 10
0.3124999925494194
 20
-11.97876620292663
 30
-0.2500000074505805
 70
   192
  0
VERTEX
  5
5A3
330
579
100
AcDbEntity
  8
3D-P-SANR-FIXT
100
AcDbVertex
100
AcDbPolyFaceMeshVertex
 10
0.1617619022727012
 20
-12.04120302200317
 30
-0.2500000074505805
 70
   192
  0
VERTEX
  5
5A4
330
579
100
AcDbEntity
  8
3D-P-SANR-FIXT
100
AcDbVertex
100
AcDbPolyFaceMeshVertex
 10
0.0000000000007427
 20
-12.06250047683715
 30
-0.2500000074505805
 70
   192
  0
VERTEX
  5
5A5
330
579
100
AcDbEntity
  8
3D-P-SANR-FIXT
100
AcDbVertex
100
AcDbPolyFaceMeshVertex
 10
-0.1617619022727012
 20
-12.04120302200317
 30
-0.2500000074505805
 70
   192
  0
VERTEX
  5
5A6
330
579
100
AcDbEntity
  8
3D-P-SANR-FIXT
100
AcDbVertex
100
AcDbPolyFaceMeshVertex
 10
-0.3124999925494194
 20
-11.97876620292663
 30
-0.2500000074505805
 70
   192
  0
VERTEX
  5
5A7
330
579
100
AcDbEntity
  8
3D-P-SANR-FIXT
100
AcDbVertex
100
AcDbPolyFaceMeshVertex
 10
-0.4419417232275009
 20
-11.87944149971008
 30
-0.2500000074505805
 70
   192
  0
VERTEX
  5
5A8
330
579
100
AcDbEntity
  8
3D-P-SANR-FIXT
100
AcDbVertex
100
AcDbPolyFaceMeshVertex
 10
-0.5412658900022506
 20
-11.75000023841858
 30
-0.2500000074505805
 70
   192
  0
VERTEX
  5
5A9
330
579
100
AcDbEntity
  8
3D-P-SANR-FIXT
100
AcDbVertex
100
AcDbPolyFaceMeshVertex
 10
-0.6037036478519439
 20
-11.59926223754882
 30
-0.2500000074505805
 70
   192
  0
VERTEX
  5
5AA
330
579
100
AcDbEntity
  8
3D-P-SANR-FIXT
100
AcDbVertex
100
AcDbPolyFaceMeshVertex
 10
-4.187500119209288
 20
-8.999999999999998
 30
-0.2500000074505805
 70
   192
  0
VERTEX
  5
5AB
330
579
100
AcDbEntity
  8
3D-P-SANR-FIXT
100
AcDbVertex
100
AcDbPolyFaceMeshVertex
 10
-4.181111097335814
 20
-8.951471328735349
 30
-0.2500000074505805
 70
   192
  0
VERTEX
  5
5AC
330
579
100
AcDbEntity
  8
3D-P-SANR-FIXT
100
AcDbVertex
100
AcDbPolyFaceMeshVertex
 10
-4.16237962245941
 20
-8.906249999999998
 30
-0.2500000074505805
 70
   192
  0
VERTEX
  5
5AD
330
579
100
AcDbEntity
  8
3D-P-SANR-FIXT
100
AcDbVertex
100
AcDbPolyFaceMeshVertex
 10
-4.132582426071166
 20
-8.867417335510252
 30
-0.2500000074505805
 70
   192
  0
VERTEX
  5
5AE
330
579
100
AcDbEntity
  8
3D-P-SANR-FIXT
100
AcDbVertex
100
AcDbPolyFaceMeshVertex
 10
-4.093750119209288
 20
-8.837620496749876
 30
-0.2500000074505805
 70
   192
  0
VERTEX
  5
5AF
330
579
100
AcDbEntity
  8
3D-P-SANR-FIXT
100
AcDbVertex
100
AcDbPolyFaceMeshVertex
 10
-4.048528432846068
 20
-8.818888664245603
 30
-0.2500000074505805
 70
   192
  0
VERTEX
  5
5B0
330
579
100
AcDbEntity
  8
3D-P-SANR-FIXT
100
AcDbVertex
100
AcDbPolyFaceMeshVertex
 10
-4.000000119209288
 20
-8.812499999999998
 30
-0.2500000074505805
 70
   192
  0
VERTEX
  5
5B1
330
579
100
AcDbEntity
  8
3D-P-SANR-FIXT
100
AcDbVertex
100
AcDbPolyFaceMeshVertex
 10
-3.95147144794464
 20
-8.818888664245603
 30
-0.2500000074505805
 70
   192
  0
VERTEX
  5
5B2
330
579
100
AcDbEntity
  8
3D-P-SANR-FIXT
100
AcDbVertex
100
AcDbPolyFaceMeshVertex
 10
-3.906250119209289
 20
-8.837620496749876
 30
-0.2500000074505805
 70
   192
  0
VERTEX
  5
5B3
330
579
100
AcDbEntity
  8
3D-P-SANR-FIXT
100
AcDbVertex
100
AcDbPolyFaceMeshVertex
 10
-3.867417454719543
 20
-8.867417335510252
 30
-0.2500000074505805
 70
   192
  0
VERTEX
  5
5B4
330
579
100
AcDbEntity
  8
3D-P-SANR-FIXT
100
AcDbVertex
100
AcDbPolyFaceMeshVertex
 10
-3.837620258331298
 20
-8.906249999999998
 30
-0.2500000074505805
 70
   192
  0
VERTEX
  5
5B5
330
579
100
AcDbEntity
  8
3D-P-SANR-FIXT
100
AcDbVertex
100
AcDbPolyFaceMeshVertex
 10
-3.818888783454894
 20
-8.951471328735349
 30
-0.2500000074505805
 70
   192
  0
VERTEX
  5
5B6
330
579
100
AcDbEntity
  8
3D-P-SANR-FIXT
100
AcDbVertex
100
AcDbPolyFaceMeshVertex
 10
-3.812500119209289
 20
-8.999999999999998
 30
-0.2500000074505805
 70
   192
  0
VERTEX
  5
5B7
330
579
100
AcDbEntity
  8
3D-P-SANR-FIXT
100
AcDbVertex
100
AcDbPolyFaceMeshVertex
 10
-3.818888783454894
 20
-9.048528671264646
 30
-0.2500000074505805
 70
   192
  0
VERTEX
  5
5B8
330
579
100
AcDbEntity
  8
3D-P-SANR-FIXT
100
AcDbVertex
100
AcDbPolyFaceMeshVertex
 10
-3.837620258331298
 20
-9.093749999999998
 30
-0.2500000074505805
 70
   192
  0
VERTEX
  5
5B9
330
579
100
AcDbEntity
  8
3D-P-SANR-FIXT
100
AcDbVertex
100
AcDbPolyFaceMeshVertex
 10
-3.867417454719543
 20
-9.132582664489744
 30
-0.2500000074505805
 70
   192
  0
VERTEX
  5
5BA
330
579
100
AcDbEntity
  8
3D-P-SANR-FIXT
100
AcDbVertex
100
AcDbPolyFaceMeshVertex
 10
-3.906250119209289
 20
-9.16237950325012
 30
-0.2500000074505805
 70
   192
  0
VERTEX
  5
5BB
330
579
100
AcDbEntity
  8
3D-P-SANR-FIXT
100
AcDbVertex
100
AcDbPolyFaceMeshVertex
 10
-3.95147144794464
 20
-9.181111335754392
 30
-0.2500000074505805
 70
   192
  0
VERTEX
  5
5BC
330
579
100
AcDbEntity
  8
3D-P-SANR-FIXT
100
AcDbVertex
100
AcDbPolyFaceMeshVertex
 10
-4.000000119209288
 20
-9.187499999999998
 30
-0.2500000074505805
 70
   192
  0
VERTEX
  5
5BD
330
579
100
AcDbEntity
  8
3D-P-SANR-FIXT
100
AcDbVertex
100
AcDbPolyFaceMeshVertex
 10
-4.048528432846068
 20
-9.181111335754392
 30
-0.2500000074505805
 70
   192
  0
VERTEX
  5
5BE
330
579
100
AcDbEntity
  8
3D-P-SANR-FIXT
100
AcDbVertex
100
AcDbPolyFaceMeshVertex
 10
-4.093750119209288
 20
-9.16237950325012
 30
-0.2500000074505805
 70
   192
  0
VERTEX
  5
5BF
330
579
100
AcDbEntity
  8
3D-P-SANR-FIXT
100
AcDbVertex
100
AcDbPolyFaceMeshVertex
 10
-4.132582426071166
 20
-9.132582664489744
 30
-0.2500000074505805
 70
   192
  0
VERTEX
  5
5C0
330
579
100
AcDbEntity
  8
3D-P-SANR-FIXT
100
AcDbVertex
100
AcDbPolyFaceMeshVertex
 10
-4.16237962245941
 20
-9.093749999999998
 30
-0.2500000074505805
 70
   192
  0
VERTEX
  5
5C1
330
579
100
AcDbEntity
  8
3D-P-SANR-FIXT
100
AcDbVertex
100
AcDbPolyFaceMeshVertex
 10
-4.181111097335814
 20
-9.048528671264646
 30
-0.2500000074505805
 70
   192
  0
VERTEX
  5
5C2
330
579
100
AcDbEntity
  8
3D-P-SANR-FIXT
100
AcDbFaceRecord
 10
0.0
 20
0.0
 30
0.0
 70
   128
 71
    -3
 72
     7
 73
    -8
 74
   -21
  0
VERTEX
  5
5C3
330
579
100
AcDbEntity
  8
3D-P-SANR-FIXT
100
AcDbFaceRecord
 10
0.0
 20
0.0
 30
0.0
 70
   128
 71
     8
 72
     9
 73
   -10
 74
   -13
  0
VERTEX
  5
5C4
330
579
100
AcDbEntity
  8
3D-P-SANR-FIXT
100
AcDbFaceRecord
 10
0.0
 20
0.0
 30
0.0
 70
   128
 71
    10
 72
    11
 73
    12
 74
   -13
  0
VERTEX
  5
5C5
330
579
100
AcDbEntity
  8
3D-P-SANR-FIXT
100
AcDbFaceRecord
 10
0.0
 20
0.0
 30
0.0
 70
   128
 71
    -5
 72
     3
 73
     4
  0
VERTEX
  5
5C6
330
579
100
AcDbEntity
  8
3D-P-SANR-FIXT
100
AcDbFaceRecord
 10
0.0
 20
0.0
 30
0.0
 70
   128
 71
     5
 72
     6
 73
    -7
 74
    -3
  0
VERTEX
  5
5C7
330
579
100
AcDbEntity
  8
3D-P-SANR-FIXT
100
AcDbFaceRecord
 10
0.0
 20
0.0
 30
0.0
 70
   128
 71
     1
 72
     2
 73
    -3
 74
   -21
  0
VERTEX
  5
5C8
330
579
100
AcDbEntity
  8
3D-P-SANR-FIXT
100
AcDbFaceRecord
 10
0.0
 20
0.0
 30
0.0
 70
   128
 71
   -21
 72
    -8
 73
   -14
 74
   -17
  0
VERTEX
  5
5C9
330
579
100
AcDbEntity
  8
3D-P-SANR-FIXT
100
AcDbFaceRecord
 10
0.0
 20
0.0
 30
0.0
 70
   128
 71
    14
 72
    15
 73
    16
 74
   -17
  0
VERTEX
  5
5CA
330
579
100
AcDbEntity
  8
3D-P-SANR-FIXT
100
AcDbFaceRecord
 10
0.0
 20
0.0
 30
0.0
 70
   128
 71
    17
 72
    18
 73
   -19
 74
   -21
  0
VERTEX
  5
5CB
330
579
100
AcDbEntity
  8
3D-P-SANR-FIXT
100
AcDbFaceRecord
 10
0.0
 20
0.0
 30
0.0
 70
   128
 71
    22
 72
    23
 73
   -24
 74
    21
  0
VERTEX
  5
5CC
330
579
100
AcDbEntity
  8
3D-P-SANR-FIXT
100
AcDbFaceRecord
 10
0.0
 20
0.0
 30
0.0
 70
   128
 71
   -21
 72
    19
 73
    20
  0
VERTEX
  5
5CD
330
579
100
AcDbEntity
  8
3D-P-SANR-FIXT
100
AcDbFaceRecord
 10
0.0
 20
0.0
 30
0.0
 70
   128
 71
    24
 72
    -1
 73
   -21
  0
VERTEX
  5
5CE
330
579
100
AcDbEntity
  8
3D-P-SANR-FIXT
100
AcDbFaceRecord
 10
0.0
 20
0.0
 30
0.0
 70
   128
 71
    -8
 72
    13
 73
   -14
  0
VERTEX
  5
5CF
330
579
100
AcDbEntity
  8
3D-P-SANR-FIXT
100
AcDbFaceRecord
 10
0.0
 20
0.0
 30
0.0
 70
   128
 71
    31
 72
    32
 73
   -33
 74
   -44
  0
VERTEX
  5
5D0
330
579
100
AcDbEntity
  8
3D-P-SANR-FIXT
100
AcDbFaceRecord
 10
0.0
 20
0.0
 30
0.0
 70
   128
 71
   -28
 72
   -31
 73
   -44
 74
   -25
  0
VERTEX
  5
5D1
330
579
100
AcDbEntity
  8
3D-P-SANR-FIXT
100
AcDbFaceRecord
 10
0.0
 20
0.0
 30
0.0
 70
   128
 71
    35
 72
   -36
 73
    33
 74
    34
  0
VERTEX
  5
5D2
330
579
100
AcDbEntity
  8
3D-P-SANR-FIXT
100
AcDbFaceRecord
 10
0.0
 20
0.0
 30
0.0
 70
   128
 71
    28
 72
    29
 73
    30
 74
   -31
  0
VERTEX
  5
5D3
330
579
100
AcDbEntity
  8
3D-P-SANR-FIXT
100
AcDbFaceRecord
 10
0.0
 20
0.0
 30
0.0
 70
   128
 71
    26
 72
    27
 73
   -28
 74
    25
  0
VERTEX
  5
5D4
330
579
100
AcDbEntity
  8
3D-P-SANR-FIXT
100
AcDbFaceRecord
 10
0.0
 20
0.0
 30
0.0
 70
   128
 71
   -44
 72
   -33
 73
   -36
 74
   -38
  0
VERTEX
  5
5D5
330
579
100
AcDbEntity
  8
3D-P-SANR-FIXT
100
AcDbFaceRecord
 10
0.0
 20
0.0
 30
0.0
 70
   128
 71
   -44
 72
    38
 73
   -39
 74
   -42
  0
VERTEX
  5
5D6
330
579
100
AcDbEntity
  8
3D-P-SANR-FIXT
100
AcDbFaceRecord
 10
0.0
 20
0.0
 30
0.0
 70
   128
 71
    40
 72
    41
 73
   -42
 74
    39
  0
VERTEX
  5
5D7
330
579
100
AcDbEntity
  8
3D-P-SANR-FIXT
100
AcDbFaceRecord
 10
0.0
 20
0.0
 30
0.0
 70
   128
 71
    46
 72
   -47
 73
    44
 74
    45
  0
VERTEX
  5
5D8
330
579
100
AcDbEntity
  8
3D-P-SANR-FIXT
100
AcDbFaceRecord
 10
0.0
 20
0.0
 30
0.0
 70
   128
 71
    47
 72
    48
 73
   -25
 74
   -44
  0
VERTEX
  5
5D9
330
579
100
AcDbEntity
  8
3D-P-SANR-FIXT
100
AcDbFaceRecord
 10
0.0
 20
0.0
 30
0.0
 70
   128
 71
    42
 72
    43
 73
   -44
  0
VERTEX
  5
5DA
330
579
100
AcDbEntity
  8
3D-P-SANR-FIXT
100
AcDbFaceRecord
 10
0.0
 20
0.0
 30
0.0
 70
   128
 71
    36
 72
    37
 73
   -38
  0
VERTEX
  5
5DB
330
579
100
AcDbEntity
  8
3D-P-SANR-FIXT
100
AcDbFaceRecord
 10
0.0
 20
0.0
 30
0.0
 70
   128
 71
    54
 72
    55
 73
    56
 74
   -57
  0
VERTEX
  5
5DC
330
579
100
AcDbEntity
  8
3D-P-SANR-FIXT
100
AcDbFaceRecord
 10
0.0
 20
0.0
 30
0.0
 70
   128
 71
   -51
 72
   -57
 73
   -71
 74
    50
  0
VERTEX
  5
5DD
330
579
100
AcDbEntity
  8
3D-P-SANR-FIXT
100
AcDbFaceRecord
 10
0.0
 20
0.0
 30
0.0
 70
   128
 71
    57
 72
    58
 73
   -59
 74
   -71
  0
VERTEX
  5
5DE
330
579
100
AcDbEntity
  8
3D-P-SANR-FIXT
100
AcDbFaceRecord
 10
0.0
 20
0.0
 30
0.0
 70
   128
 71
    52
 72
    53
 73
   -54
 74
    51
  0
VERTEX
  5
5DF
330
579
100
AcDbEntity
  8
3D-P-SANR-FIXT
100
AcDbFaceRecord
 10
0.0
 20
0.0
 30
0.0
 70
   128
 71
   -51
 72
   -54
 73
   -57
  0
VERTEX
  5
5E0
330
579
100
AcDbEntity
  8
3D-P-SANR-FIXT
100
AcDbFaceRecord
 10
0.0
 20
0.0
 30
0.0
 70
   128
 71
    72
 72
    49
 73
   -50
 74
    71
  0
VERTEX
  5
5E1
330
579
100
AcDbEntity
  8
3D-P-SANR-FIXT
100
AcDbFaceRecord
 10
0.0
 20
0.0
 30
0.0
 70
   128
 71
   -64
 72
    59
 73
   -60
 74
   -62
  0
VERTEX
  5
5E2
330
579
100
AcDbEntity
  8
3D-P-SANR-FIXT
100
AcDbFaceRecord
 10
0.0
 20
0.0
 30
0.0
 70
   128
 71
   -64
 72
    62
 73
    63
  0
VERTEX
  5
5E3
330
579
100
AcDbEntity
  8
3D-P-SANR-FIXT
100
AcDbFaceRecord
 10
0.0
 20
0.0
 30
0.0
 70
   128
 71
    64
 72
    65
 73
   -66
 74
   -59
  0
VERTEX
  5
5E4
330
579
100
AcDbEntity
  8
3D-P-SANR-FIXT
100
AcDbFaceRecord
 10
0.0
 20
0.0
 30
0.0
 70
   128
 71
   -59
 72
   -66
 73
   -71
  0
VERTEX
  5
5E5
330
579
100
AcDbEntity
  8
3D-P-SANR-FIXT
100
AcDbFaceRecord
 10
0.0
 20
0.0
 30
0.0
 70
   128
 71
    69
 72
    70
 73
   -71
 74
   -66
  0
VERTEX
  5
5E6
330
579
100
AcDbEntity
  8
3D-P-SANR-FIXT
100
AcDbFaceRecord
 10
0.0
 20
0.0
 30
0.0
 70
   128
 71
    68
 72
   -69
 73
    66
 74
    67
  0
VERTEX
  5
5E7
330
579
100
AcDbEntity
  8
3D-P-SANR-FIXT
100
AcDbFaceRecord
 10
0.0
 20
0.0
 30
0.0
 70
   128
 71
    60
 72
    61
 73
   -62
  0
SEQEND
  5
5E8
330
579
100
AcDbEntity
  8
3D-P-SANR-FIXT
  0
POLYLINE
  5
5E9
330
75
100
AcDbEntity
  8
3D-P-SANR-FIXT
100
AcDbPolyFaceMesh
 66
     1
 10
0.0
 20
0.0
 30
0.0
 70
    64
 71
    26
 72
    12
1001
REVIT
1002
{
1070
     1
1000
14316
1002
}
1002
{
1070
     4
1000
14599
1002
}
1002
{
1070
     2
1000
-2001160
1002
}
  0
VERTEX
  5
5EA
330
5E9
100
AcDbEntity
  8
3D-P-SANR-FIXT
100
AcDbVertex
100
AcDbPolyFaceMeshVertex
 10
4.187500119209288
 20
-8.999999999999998
 30
-0.0000000000012851
 70
   192
  0
VERTEX
  5
5EB
330
5E9
100
AcDbEntity
  8
3D-P-SANR-FIXT
100
AcDbVertex
100
AcDbPolyFaceMeshVertex
 10
4.181111097335814
 20
-9.048528671264646
 30
-0.0000000000012855
 70
   192
  0
VERTEX
  5
5EC
330
5E9
100
AcDbEntity
  8
3D-P-SANR-FIXT
100
AcDbVertex
100
AcDbPolyFaceMeshVertex
 10
4.16237962245941
 20
-9.093749999999998
 30
-0.0000000000012858
 70
   192
  0
VERTEX
  5
5ED
330
5E9
100
AcDbEntity
  8
3D-P-SANR-FIXT
100
AcDbVertex
100
AcDbPolyFaceMeshVertex
 10
4.132582426071166
 20
-9.132582664489744
 30
-0.0000000000012861
 70
   192
  0
VERTEX
  5
5EE
330
5E9
100
AcDbEntity
  8
3D-P-SANR-FIXT
100
AcDbVertex
100
AcDbPolyFaceMeshVertex
 10
4.093750119209288
 20
-9.16237950325012
 30
-0.0000000000012863
 70
   192
  0
VERTEX
  5
5EF
330
5E9
100
AcDbEntity
  8
3D-P-SANR-FIXT
100
AcDbVertex
100
AcDbPolyFaceMeshVertex
 10
4.048528432846068
 20
-9.181111335754392
 30
-0.0000000000012864
 70
   192
  0
VERTEX
  5
5F0
330
5E9
100
AcDbEntity
  8
3D-P-SANR-FIXT
100
AcDbVertex
100
AcDbPolyFaceMeshVertex
 10
4.000000119209288
 20
-9.187499999999998
 30
-0.0000000000012864
 70
   192
  0
VERTEX
  5
5F1
330
5E9
100
AcDbEntity
  8
3D-P-SANR-FIXT
100
AcDbVertex
100
AcDbPolyFaceMeshVertex
 10
3.95147144794464
 20
-9.181111335754392
 30
-0.0000000000012864
 70
   192
  0
VERTEX
  5
5F2
330
5E9
100
AcDbEntity
  8
3D-P-SANR-FIXT
100
AcDbVertex
100
AcDbPolyFaceMeshVertex
 10
3.906250119209289
 20
-9.16237950325012
 30
-0.0000000000012863
 70
   192
  0
VERTEX
  5
5F3
330
5E9
100
AcDbEntity
  8
3D-P-SANR-FIXT
100
AcDbVertex
100
AcDbPolyFaceMeshVertex
 10
3.867417454719543
 20
-9.132582664489744
 30
-0.0000000000012861
 70
   192
  0
VERTEX
  5
5F4
330
5E9
100
AcDbEntity
  8
3D-P-SANR-FIXT
100
AcDbVertex
100
AcDbPolyFaceMeshVertex
 10
3.837620258331298
 20
-9.093749999999998
 30
-0.0000000000012858
 70
   192
  0
VERTEX
  5
5F5
330
5E9
100
AcDbEntity
  8
3D-P-SANR-FIXT
100
AcDbVertex
100
AcDbPolyFaceMeshVertex
 10
3.818888783454894
 20
-9.048528671264646
 30
-0.0000000000012855
 70
   192
  0
VERTEX
  5
5F6
330
5E9
100
AcDbEntity
  8
3D-P-SANR-FIXT
100
AcDbVertex
100
AcDbPolyFaceMeshVertex
 10
3.812500119209289
 20
-8.999999999999998
 30
-0.0000000000012852
 70
   192
  0
VERTEX
  5
5F7
330
5E9
100
AcDbEntity
  8
3D-P-SANR-FIXT
100
AcDbVertex
100
AcDbPolyFaceMeshVertex
 10
3.812500119209289
 20
-8.999999999999998
 30
-0.2500000074505805
 70
   192
  0
VERTEX
  5
5F8
330
5E9
100
AcDbEntity
  8
3D-P-SANR-FIXT
100
AcDbVertex
100
AcDbPolyFaceMeshVertex
 10
3.818888783454894
 20
-9.048528671264646
 30
-0.2500000074505805
 70
   192
  0
VERTEX
  5
5F9
330
5E9
100
AcDbEntity
  8
3D-P-SANR-FIXT
100
AcDbVertex
100
AcDbPolyFaceMeshVertex
 10
3.837620258331298
 20
-9.093749999999998
 30
-0.2500000074505805
 70
   192
  0
VERTEX
  5
5FA
330
5E9
100
AcDbEntity
  8
3D-P-SANR-FIXT
100
AcDbVertex
100
AcDbPolyFaceMeshVertex
 10
3.867417454719543
 20
-9.132582664489744
 30
-0.2500000074505805
 70
   192
  0
VERTEX
  5
5FB
330
5E9
100
AcDbEntity
  8
3D-P-SANR-FIXT
100
AcDbVertex
100
AcDbPolyFaceMeshVertex
 10
3.906250119209289
 20
-9.16237950325012
 30
-0.2500000074505805
 70
   192
  0
VERTEX
  5
5FC
330
5E9
100
AcDbEntity
  8
3D-P-SANR-FIXT
100
AcDbVertex
100
AcDbPolyFaceMeshVertex
 10
3.95147144794464
 20
-9.181111335754392
 30
-0.2500000074505805
 70
   192
  0
VERTEX
  5
5FD
330
5E9
100
AcDbEntity
  8
3D-P-SANR-FIXT
100
AcDbVertex
100
AcDbPolyFaceMeshVertex
 10
4.000000119209288
 20
-9.187499999999998
 30
-0.2500000074505805
 70
   192
  0
VERTEX
  5
5FE
330
5E9
100
AcDbEntity
  8
3D-P-SANR-FIXT
100
AcDbVertex
100
AcDbPolyFaceMeshVertex
 10
4.048528432846068
 20
-9.181111335754392
 30
-0.2500000074505805
 70
   192
  0
VERTEX
  5
5FF
330
5E9
100
AcDbEntity
  8
3D-P-SANR-FIXT
100
AcDbVertex
100
AcDbPolyFaceMeshVertex
 10
4.093750119209288
 20
-9.16237950325012
 30
-0.2500000074505805
 70
   192
  0
VERTEX
  5
600
330
5E9
100
AcDbEntity
  8
3D-P-SANR-FIXT
100
AcDbVertex
100
AcDbPolyFaceMeshVertex
 10
4.132582426071166
 20
-9.132582664489744
 30
-0.2500000074505805
 70
   192
  0
VERTEX
  5
601
330
5E9
100
AcDbEntity
  8
3D-P-SANR-FIXT
100
AcDbVertex
100
AcDbPolyFaceMeshVertex
 10
4.16237962245941
 20
-9.093749999999998
 30
-0.2500000074505805
 70
   192
  0
VERTEX
  5
602
330
5E9
100
AcDbEntity
  8
3D-P-SANR-FIXT
100
AcDbVertex
100
AcDbPolyFaceMeshVertex
 10
4.181111097335814
 20
-9.048528671264646
 30
-0.2500000074505805
 70
   192
  0
VERTEX
  5
603
330
5E9
100
AcDbEntity
  8
3D-P-SANR-FIXT
100
AcDbVertex
100
AcDbPolyFaceMeshVertex
 10
4.187500119209288
 20
-8.999999999999998
 30
-0.2500000074505805
 70
   192
  0
VERTEX
  5
604
330
5E9
100
AcDbEntity
  8
3D-P-SANR-FIXT
100
AcDbFaceRecord
 10
0.0
 20
0.0
 30
0.0
 70
   128
 71
    14
 72
   -15
 73
    12
 74
    13
  0
VERTEX
  5
605
330
5E9
100
AcDbEntity
  8
3D-P-SANR-FIXT
100
AcDbFaceRecord
 10
0.0
 20
0.0
 30
0.0
 70
   128
 71
    15
 72
   -16
 73
    11
 74
   -12
  0
VERTEX
  5
606
330
5E9
100
AcDbEntity
  8
3D-P-SANR-FIXT
100
AcDbFaceRecord
 10
0.0
 20
0.0
 30
0.0
 70
   128
 71
    17
 72
   -18
 73
     9
 74
   -10
  0
VERTEX
  5
607
330
5E9
100
AcDbEntity
  8
3D-P-SANR-FIXT
100
AcDbFaceRecord
 10
0.0
 20
0.0
 30
0.0
 70
   128
 71
    16
 72
   -17
 73
    10
 74
   -11
  0
VERTEX
  5
608
330
5E9
100
AcDbEntity
  8
3D-P-SANR-FIXT
100
AcDbFaceRecord
 10
0.0
 20
0.0
 30
0.0
 70
   128
 71
    18
 72
   -19
 73
     8
 74
    -9
  0
VERTEX
  5
609
330
5E9
100
AcDbEntity
  8
3D-P-SANR-FIXT
100
AcDbFaceRecord
 10
0.0
 20
0.0
 30
0.0
 70
   128
 71
     7
 72
    -8
 73
    19
 74
   -20
  0
VERTEX
  5
60A
330
5E9
100
AcDbEntity
  8
3D-P-SANR-FIXT
100
AcDbFaceRecord
 10
0.0
 20
0.0
 30
0.0
 70
   128
 71
    20
 72
   -21
 73
     6
 74
    -7
  0
VERTEX
  5
60B
330
5E9
100
AcDbEntity
  8
3D-P-SANR-FIXT
100
AcDbFaceRecord
 10
0.0
 20
0.0
 30
0.0
 70
   128
 71
    21
 72
   -22
 73
     5
 74
    -6
  0
VERTEX
  5
60C
330
5E9
100
AcDbEntity
  8
3D-P-SANR-FIXT
100
AcDbFaceRecord
 10
0.0
 20
0.0
 30
0.0
 70
   128
 71
    23
 72
   -24
 73
     3
 74
    -4
  0
VERTEX
  5
60D
330
5E9
100
AcDbEntity
  8
3D-P-SANR-FIXT
100
AcDbFaceRecord
 10
0.0
 20
0.0
 30
0.0
 70
   128
 71
    22
 72
   -23
 73
     4
 74
    -5
  0
VERTEX
  5
60E
330
5E9
100
AcDbEntity
  8
3D-P-SANR-FIXT
100
AcDbFaceRecord
 10
0.0
 20
0.0
 30
0.0
 70
   128
 71
    24
 72
   -25
 73
     2
 74
    -3
  0
VERTEX
  5
60F
330
5E9
100
AcDbEntity
  8
3D-P-SANR-FIXT
100
AcDbFaceRecord
 10
0.0
 20
0.0
 30
0.0
 70
   128
 71
     1
 72
    -2
 73
    25
 74
    26
  0
SEQEND
  5
610
330
5E9
100
AcDbEntity
  8
3D-P-SANR-FIXT
  0
POLYLINE
  5
611
330
75
100
AcDbEntity
  8
3D-P-SANR-FIXT
100
AcDbPolyFaceMesh
 66
     1
 10
0.0
 20
0.0
 30
0.0
 70
    64
 71
    26
 72
    12
1001
REVIT
1002
{
1070
     1
1000
14316
1002
}
1002
{
1070
     4
1000
14599
1002
}
1002
{
1070
     2
1000
-2001160
1002
}
  0
VERTEX
  5
612
330
611
100
AcDbEntity
  8
3D-P-SANR-FIXT
100
AcDbVertex
100
AcDbPolyFaceMeshVertex
 10
3.812500119209289
 20
-8.999999999999998
 30
-0.0000000000012852
 70
   192
  0
VERTEX
  5
613
330
611
100
AcDbEntity
  8
3D-P-SANR-FIXT
100
AcDbVertex
100
AcDbPolyFaceMeshVertex
 10
3.818888783454894
 20
-8.951471328735349
 30
-0.0000000000012848
 70
   192
  0
VERTEX
  5
614
330
611
100
AcDbEntity
  8
3D-P-SANR-FIXT
100
AcDbVertex
100
AcDbPolyFaceMeshVertex
 10
3.837620258331298
 20
-8.906249999999998
 30
-0.0000000000012846
 70
   192
  0
VERTEX
  5
615
330
611
100
AcDbEntity
  8
3D-P-SANR-FIXT
100
AcDbVertex
100
AcDbPolyFaceMeshVertex
 10
3.867417454719543
 20
-8.867417335510252
 30
-0.0000000000012843
 70
   192
  0
VERTEX
  5
616
330
611
100
AcDbEntity
  8
3D-P-SANR-FIXT
100
AcDbVertex
100
AcDbPolyFaceMeshVertex
 10
3.906250119209289
 20
-8.837620496749876
 30
-0.0000000000012841
 70
   192
  0
VERTEX
  5
617
330
611
100
AcDbEntity
  8
3D-P-SANR-FIXT
100
AcDbVertex
100
AcDbPolyFaceMeshVertex
 10
3.95147144794464
 20
-8.818888664245603
 30
-0.0000000000012839
 70
   192
  0
VERTEX
  5
618
330
611
100
AcDbEntity
  8
3D-P-SANR-FIXT
100
AcDbVertex
100
AcDbPolyFaceMeshVertex
 10
4.000000119209288
 20
-8.812499999999998
 30
-0.0000000000012839
 70
   192
  0
VERTEX
  5
619
330
611
100
AcDbEntity
  8
3D-P-SANR-FIXT
100
AcDbVertex
100
AcDbPolyFaceMeshVertex
 10
4.048528432846068
 20
-8.818888664245603
 30
-0.0000000000012839
 70
   192
  0
VERTEX
  5
61A
330
611
100
AcDbEntity
  8
3D-P-SANR-FIXT
100
AcDbVertex
100
AcDbPolyFaceMeshVertex
 10
4.093750119209288
 20
-8.837620496749876
 30
-0.0000000000012841
 70
   192
  0
VERTEX
  5
61B
330
611
100
AcDbEntity
  8
3D-P-SANR-FIXT
100
AcDbVertex
100
AcDbPolyFaceMeshVertex
 10
4.132582426071166
 20
-8.867417335510252
 30
-0.0000000000012843
 70
   192
  0
VERTEX
  5
61C
330
611
100
AcDbEntity
  8
3D-P-SANR-FIXT
100
AcDbVertex
100
AcDbPolyFaceMeshVertex
 10
4.16237962245941
 20
-8.906249999999998
 30
-0.0000000000012845
 70
   192
  0
VERTEX
  5
61D
330
611
100
AcDbEntity
  8
3D-P-SANR-FIXT
100
AcDbVertex
100
AcDbPolyFaceMeshVertex
 10
4.181111097335814
 20
-8.951471328735349
 30
-0.0000000000012848
 70
   192
  0
VERTEX
  5
61E
330
611
100
AcDbEntity
  8
3D-P-SANR-FIXT
100
AcDbVertex
100
AcDbPolyFaceMeshVertex
 10
4.187500119209288
 20
-8.999999999999998
 30
-0.0000000000012851
 70
   192
  0
VERTEX
  5
61F
330
611
100
AcDbEntity
  8
3D-P-SANR-FIXT
100
AcDbVertex
100
AcDbPolyFaceMeshVertex
 10
4.187500119209288
 20
-8.999999999999998
 30
-0.2500000074505805
 70
   192
  0
VERTEX
  5
620
330
611
100
AcDbEntity
  8
3D-P-SANR-FIXT
100
AcDbVertex
100
AcDbPolyFaceMeshVertex
 10
4.181111097335814
 20
-8.951471328735349
 30
-0.2500000074505805
 70
   192
  0
VERTEX
  5
621
330
611
100
AcDbEntity
  8
3D-P-SANR-FIXT
100
AcDbVertex
100
AcDbPolyFaceMeshVertex
 10
4.16237962245941
 20
-8.906249999999998
 30
-0.2500000074505805
 70
   192
  0
VERTEX
  5
622
330
611
100
AcDbEntity
  8
3D-P-SANR-FIXT
100
AcDbVertex
100
AcDbPolyFaceMeshVertex
 10
4.132582426071166
 20
-8.867417335510252
 30
-0.2500000074505805
 70
   192
  0
VERTEX
  5
623
330
611
100
AcDbEntity
  8
3D-P-SANR-FIXT
100
AcDbVertex
100
AcDbPolyFaceMeshVertex
 10
4.093750119209288
 20
-8.837620496749876
 30
-0.2500000074505805
 70
   192
  0
VERTEX
  5
624
330
611
100
AcDbEntity
  8
3D-P-SANR-FIXT
100
AcDbVertex
100
AcDbPolyFaceMeshVertex
 10
4.048528432846068
 20
-8.818888664245603
 30
-0.2500000074505805
 70
   192
  0
VERTEX
  5
625
330
611
100
AcDbEntity
  8
3D-P-SANR-FIXT
100
AcDbVertex
100
AcDbPolyFaceMeshVertex
 10
4.000000119209288
 20
-8.812499999999998
 30
-0.2500000074505805
 70
   192
  0
VERTEX
  5
626
330
611
100
AcDbEntity
  8
3D-P-SANR-FIXT
100
AcDbVertex
100
AcDbPolyFaceMeshVertex
 10
3.95147144794464
 20
-8.818888664245603
 30
-0.2500000074505805
 70
   192
  0
VERTEX
  5
627
330
611
100
AcDbEntity
  8
3D-P-SANR-FIXT
100
AcDbVertex
100
AcDbPolyFaceMeshVertex
 10
3.906250119209289
 20
-8.837620496749876
 30
-0.2500000074505805
 70
   192
  0
VERTEX
  5
628
330
611
100
AcDbEntity
  8
3D-P-SANR-FIXT
100
AcDbVertex
100
AcDbPolyFaceMeshVertex
 10
3.867417454719543
 20
-8.867417335510252
 30
-0.2500000074505805
 70
   192
  0
VERTEX
  5
629
330
611
100
AcDbEntity
  8
3D-P-SANR-FIXT
100
AcDbVertex
100
AcDbPolyFaceMeshVertex
 10
3.837620258331298
 20
-8.906249999999998
 30
-0.2500000074505805
 70
   192
  0
VERTEX
  5
62A
330
611
100
AcDbEntity
  8
3D-P-SANR-FIXT
100
AcDbVertex
100
AcDbPolyFaceMeshVertex
 10
3.818888783454894
 20
-8.951471328735349
 30
-0.2500000074505805
 70
   192
  0
VERTEX
  5
62B
330
611
100
AcDbEntity
  8
3D-P-SANR-FIXT
100
AcDbVertex
100
AcDbPolyFaceMeshVertex
 10
3.812500119209289
 20
-8.999999999999998
 30
-0.2500000074505805
 70
   192
  0
VERTEX
  5
62C
330
611
100
AcDbEntity
  8
3D-P-SANR-FIXT
100
AcDbFaceRecord
 10
0.0
 20
0.0
 30
0.0
 70
   128
 71
    14
 72
   -15
 73
    12
 74
    13
  0
VERTEX
  5
62D
330
611
100
AcDbEntity
  8
3D-P-SANR-FIXT
100
AcDbFaceRecord
 10
0.0
 20
0.0
 30
0.0
 70
   128
 71
    15
 72
   -16
 73
    11
 74
   -12
  0
VERTEX
  5
62E
330
611
100
AcDbEntity
  8
3D-P-SANR-FIXT
100
AcDbFaceRecord
 10
0.0
 20
0.0
 30
0.0
 70
   128
 71
    17
 72
   -18
 73
     9
 74
   -10
  0
VERTEX
  5
62F
330
611
100
AcDbEntity
  8
3D-P-SANR-FIXT
100
AcDbFaceRecord
 10
0.0
 20
0.0
 30
0.0
 70
   128
 71
    16
 72
   -17
 73
    10
 74
   -11
  0
VERTEX
  5
630
330
611
100
AcDbEntity
  8
3D-P-SANR-FIXT
100
AcDbFaceRecord
 10
0.0
 20
0.0
 30
0.0
 70
   128
 71
    18
 72
   -19
 73
     8
 74
    -9
  0
VERTEX
  5
631
330
611
100
AcDbEntity
  8
3D-P-SANR-FIXT
100
AcDbFaceRecord
 10
0.0
 20
0.0
 30
0.0
 70
   128
 71
     7
 72
    -8
 73
    19
 74
   -20
  0
VERTEX
  5
632
330
611
100
AcDbEntity
  8
3D-P-SANR-FIXT
100
AcDbFaceRecord
 10
0.0
 20
0.0
 30
0.0
 70
   128
 71
    20
 72
   -21
 73
     6
 74
    -7
  0
VERTEX
  5
633
330
611
100
AcDbEntity
  8
3D-P-SANR-FIXT
100
AcDbFaceRecord
 10
0.0
 20
0.0
 30
0.0
 70
   128
 71
    21
 72
   -22
 73
     5
 74
    -6
  0
VERTEX
  5
634
330
611
100
AcDbEntity
  8
3D-P-SANR-FIXT
100
AcDbFaceRecord
 10
0.0
 20
0.0
 30
0.0
 70
   128
 71
    23
 72
   -24
 73
     3
 74
    -4
  0
VERTEX
  5
635
330
611
100
AcDbEntity
  8
3D-P-SANR-FIXT
100
AcDbFaceRecord
 10
0.0
 20
0.0
 30
0.0
 70
   128
 71
    22
 72
   -23
 73
     4
 74
    -5
  0
VERTEX
  5
636
330
611
100
AcDbEntity
  8
3D-P-SANR-FIXT
100
AcDbFaceRecord
 10
0.0
 20
0.0
 30
0.0
 70
   128
 71
    24
 72
   -25
 73
     2
 74
    -3
  0
VERTEX
  5
637
330
611
100
AcDbEntity
  8
3D-P-SANR-FIXT
100
AcDbFaceRecord
 10
0.0
 20
0.0
 30
0.0
 70
   128
 71
     1
 72
    -2
 73
    25
 74
    26
  0
SEQEND
  5
638
330
611
100
AcDbEntity
  8
3D-P-SANR-FIXT
  0
POLYLINE
  5
639
330
75
100
AcDbEntity
  8
3D-P-SANR-FIXT
100
AcDbPolyFaceMesh
 66
     1
 10
0.0
 20
0.0
 30
0.0
 70
    64
 71
    26
 72
    12
1001
REVIT
1002
{
1070
     1
1000
14316
1002
}
1002
{
1070
     4
1000
14599
1002
}
1002
{
1070
     2
1000
-2001160
1002
}
  0
VERTEX
  5
63A
330
639
100
AcDbEntity
  8
3D-P-SANR-FIXT
100
AcDbVertex
100
AcDbPolyFaceMeshVertex
 10
0.6249999850988388
 20
-11.4375
 30
-0.0000000000013021
 70
   192
  0
VERTEX
  5
63B
330
639
100
AcDbEntity
  8
3D-P-SANR-FIXT
100
AcDbVertex
100
AcDbPolyFaceMeshVertex
 10
0.6037036478519439
 20
-11.59926223754882
 30
-0.0000000000013032
 70
   192
  0
VERTEX
  5
63C
330
639
100
AcDbEntity
  8
3D-P-SANR-FIXT
100
AcDbVertex
100
AcDbPolyFaceMeshVertex
 10
0.5412658900022506
 20
-11.75000023841858
 30
-0.0000000000013043
 70
   192
  0
VERTEX
  5
63D
330
639
100
AcDbEntity
  8
3D-P-SANR-FIXT
100
AcDbVertex
100
AcDbPolyFaceMeshVertex
 10
0.4419417232275009
 20
-11.87944149971008
 30
-0.0000000000013051
 70
   192
  0
VERTEX
  5
63E
330
639
100
AcDbEntity
  8
3D-P-SANR-FIXT
100
AcDbVertex
100
AcDbPolyFaceMeshVertex
 10
0.3124999925494194
 20
-11.97876620292663
 30
-0.0000000000013058
 70
   192
  0
VERTEX
  5
63F
330
639
100
AcDbEntity
  8
3D-P-SANR-FIXT
100
AcDbVertex
100
AcDbPolyFaceMeshVertex
 10
0.1617619022727012
 20
-12.04120302200317
 30
-0.0000000000013063
 70
   192
  0
VERTEX
  5
640
330
639
100
AcDbEntity
  8
3D-P-SANR-FIXT
100
AcDbVertex
100
AcDbPolyFaceMeshVertex
 10
0.0000000000007386
 20
-12.06250047683715
 30
-0.0000000000013064
 70
   192
  0
VERTEX
  5
641
330
639
100
AcDbEntity
  8
3D-P-SANR-FIXT
100
AcDbVertex
100
AcDbPolyFaceMeshVertex
 10
-0.1617619022727012
 20
-12.04120302200317
 30
-0.0000000000013063
 70
   192
  0
VERTEX
  5
642
330
639
100
AcDbEntity
  8
3D-P-SANR-FIXT
100
AcDbVertex
100
AcDbPolyFaceMeshVertex
 10
-0.3124999925494194
 20
-11.97876620292663
 30
-0.0000000000013059
 70
   192
  0
VERTEX
  5
643
330
639
100
AcDbEntity
  8
3D-P-SANR-FIXT
100
AcDbVertex
100
AcDbPolyFaceMeshVertex
 10
-0.4419417232275009
 20
-11.87944149971008
 30
-0.0000000000013053
 70
   192
  0
VERTEX
  5
644
330
639
100
AcDbEntity
  8
3D-P-SANR-FIXT
100
AcDbVertex
100
AcDbPolyFaceMeshVertex
 10
-0.5412658900022506
 20
-11.75000023841858
 30
-0.0000000000013044
 70
   192
  0
VERTEX
  5
645
330
639
100
AcDbEntity
  8
3D-P-SANR-FIXT
100
AcDbVertex
100
AcDbPolyFaceMeshVertex
 10
-0.6037036478519439
 20
-11.59926223754882
 30
-0.0000000000013034
 70
   192
  0
VERTEX
  5
646
330
639
100
AcDbEntity
  8
3D-P-SANR-FIXT
100
AcDbVertex
100
AcDbPolyFaceMeshVertex
 10
-0.6249999850988388
 20
-11.4375
 30
-0.0000000000013023
 70
   192
  0
VERTEX
  5
647
330
639
100
AcDbEntity
  8
3D-P-SANR-FIXT
100
AcDbVertex
100
AcDbPolyFaceMeshVertex
 10
-0.6249999850988388
 20
-11.4375
 30
-0.2500000074505805
 70
   192
  0
VERTEX
  5
648
330
639
100
AcDbEntity
  8
3D-P-SANR-FIXT
100
AcDbVertex
100
AcDbPolyFaceMeshVertex
 10
-0.6037036478519439
 20
-11.59926223754882
 30
-0.2500000074505805
 70
   192
  0
VERTEX
  5
649
330
639
100
AcDbEntity
  8
3D-P-SANR-FIXT
100
AcDbVertex
100
AcDbPolyFaceMeshVertex
 10
-0.5412658900022506
 20
-11.75000023841858
 30
-0.2500000074505805
 70
   192
  0
VERTEX
  5
64A
330
639
100
AcDbEntity
  8
3D-P-SANR-FIXT
100
AcDbVertex
100
AcDbPolyFaceMeshVertex
 10
-0.4419417232275009
 20
-11.87944149971008
 30
-0.2500000074505805
 70
   192
  0
VERTEX
  5
64B
330
639
100
AcDbEntity
  8
3D-P-SANR-FIXT
100
AcDbVertex
100
AcDbPolyFaceMeshVertex
 10
-0.3124999925494194
 20
-11.97876620292663
 30
-0.2500000074505805
 70
   192
  0
VERTEX
  5
64C
330
639
100
AcDbEntity
  8
3D-P-SANR-FIXT
100
AcDbVertex
100
AcDbPolyFaceMeshVertex
 10
-0.1617619022727012
 20
-12.04120302200317
 30
-0.2500000074505805
 70
   192
  0
VERTEX
  5
64D
330
639
100
AcDbEntity
  8
3D-P-SANR-FIXT
100
AcDbVertex
100
AcDbPolyFaceMeshVertex
 10
0.0000000000007386
 20
-12.06250047683715
 30
-0.2500000074505805
 70
   192
  0
VERTEX
  5
64E
330
639
100
AcDbEntity
  8
3D-P-SANR-FIXT
100
AcDbVertex
100
AcDbPolyFaceMeshVertex
 10
0.1617619022727012
 20
-12.04120302200317
 30
-0.2500000074505805
 70
   192
  0
VERTEX
  5
64F
330
639
100
AcDbEntity
  8
3D-P-SANR-FIXT
100
AcDbVertex
100
AcDbPolyFaceMeshVertex
 10
0.3124999925494194
 20
-11.97876620292663
 30
-0.2500000074505805
 70
   192
  0
VERTEX
  5
650
330
639
100
AcDbEntity
  8
3D-P-SANR-FIXT
100
AcDbVertex
100
AcDbPolyFaceMeshVertex
 10
0.4419417232275009
 20
-11.87944149971008
 30
-0.2500000074505805
 70
   192
  0
VERTEX
  5
651
330
639
100
AcDbEntity
  8
3D-P-SANR-FIXT
100
AcDbVertex
100
AcDbPolyFaceMeshVertex
 10
0.5412658900022506
 20
-11.75000023841858
 30
-0.2500000074505805
 70
   192
  0
VERTEX
  5
652
330
639
100
AcDbEntity
  8
3D-P-SANR-FIXT
100
AcDbVertex
100
AcDbPolyFaceMeshVertex
 10
0.6037036478519439
 20
-11.59926223754882
 30
-0.2500000074505805
 70
   192
  0
VERTEX
  5
653
330
639
100
AcDbEntity
  8
3D-P-SANR-FIXT
100
AcDbVertex
100
AcDbPolyFaceMeshVertex
 10
0.6249999850988388
 20
-11.4375
 30
-0.2500000074505805
 70
   192
  0
VERTEX
  5
654
330
639
100
AcDbEntity
  8
3D-P-SANR-FIXT
100
AcDbFaceRecord
 10
0.0
 20
0.0
 30
0.0
 70
   128
 71
    13
 72
    14
 73
   -15
 74
    12
  0
VERTEX
  5
655
330
639
100
AcDbEntity
  8
3D-P-SANR-FIXT
100
AcDbFaceRecord
 10
0.0
 20
0.0
 30
0.0
 70
   128
 71
   -12
 72
    15
 73
   -16
 74
    11
  0
VERTEX
  5
656
330
639
100
AcDbEntity
  8
3D-P-SANR-FIXT
100
AcDbFaceRecord
 10
0.0
 20
0.0
 30
0.0
 70
   128
 71
   -10
 72
    17
 73
   -18
 74
     9
  0
VERTEX
  5
657
330
639
100
AcDbEntity
  8
3D-P-SANR-FIXT
100
AcDbFaceRecord
 10
0.0
 20
0.0
 30
0.0
 70
   128
 71
   -11
 72
    16
 73
   -17
 74
    10
  0
VERTEX
  5
658
330
639
100
AcDbEntity
  8
3D-P-SANR-FIXT
100
AcDbFaceRecord
 10
0.0
 20
0.0
 30
0.0
 70
   128
 71
    -9
 72
    18
 73
   -19
 74
     8
  0
VERTEX
  5
659
330
639
100
AcDbEntity
  8
3D-P-SANR-FIXT
100
AcDbFaceRecord
 10
0.0
 20
0.0
 30
0.0
 70
   128
 71
   -20
 72
     7
 73
    -8
 74
    19
  0
VERTEX
  5
65A
330
639
100
AcDbEntity
  8
3D-P-SANR-FIXT
100
AcDbFaceRecord
 10
0.0
 20
0.0
 30
0.0
 70
   128
 71
    -6
 72
    21
 73
   -22
 74
     5
  0
VERTEX
  5
65B
330
639
100
AcDbEntity
  8
3D-P-SANR-FIXT
100
AcDbFaceRecord
 10
0.0
 20
0.0
 30
0.0
 70
   128
 71
    -5
 72
    22
 73
   -23
 74
     4
  0
VERTEX
  5
65C
330
639
100
AcDbEntity
  8
3D-P-SANR-FIXT
100
AcDbFaceRecord
 10
0.0
 20
0.0
 30
0.0
 70
   128
 71
    -3
 72
    24
 73
   -25
 74
     2
  0
VERTEX
  5
65D
330
639
100
AcDbEntity
  8
3D-P-SANR-FIXT
100
AcDbFaceRecord
 10
0.0
 20
0.0
 30
0.0
 70
   128
 71
    -4
 72
    23
 73
   -24
 74
     3
  0
VERTEX
  5
65E
330
639
100
AcDbEntity
  8
3D-P-SANR-FIXT
100
AcDbFaceRecord
 10
0.0
 20
0.0
 30
0.0
 70
   128
 71
    -2
 72
    25
 73
    26
 74
     1
  0
VERTEX
  5
65F
330
639
100
AcDbEntity
  8
3D-P-SANR-FIXT
100
AcDbFaceRecord
 10
0.0
 20
0.0
 30
0.0
 70
   128
 71
   -21
 72
     6
 73
    -7
 74
    20
  0
SEQEND
  5
660
330
639
100
AcDbEntity
  8
3D-P-SANR-FIXT
  0
POLYLINE
  5
661
330
75
100
AcDbEntity
  8
3D-P-SANR-FIXT
100
AcDbPolyFaceMesh
 66
     1
 10
0.0
 20
0.0
 30
0.0
 70
    64
 71
    26
 72
    12
1001
REVIT
1002
{
1070
     1
1000
14316
1002
}
1002
{
1070
     4
1000
14599
1002
}
1002
{
1070
     2
1000
-2001160
1002
}
  0
VERTEX
  5
662
330
661
100
AcDbEntity
  8
3D-P-SANR-FIXT
100
AcDbVertex
100
AcDbPolyFaceMeshVertex
 10
-0.6249999850988388
 20
-11.4375
 30
-0.0000000000013023
 70
   192
  0
VERTEX
  5
663
330
661
100
AcDbEntity
  8
3D-P-SANR-FIXT
100
AcDbVertex
100
AcDbPolyFaceMeshVertex
 10
-0.6037036478519439
 20
-11.27573776245117
 30
-0.0000000000013012
 70
   192
  0
VERTEX
  5
664
330
661
100
AcDbEntity
  8
3D-P-SANR-FIXT
100
AcDbVertex
100
AcDbPolyFaceMeshVertex
 10
-0.5412658900022506
 20
-11.12499976158142
 30
-0.0000000000013001
 70
   192
  0
VERTEX
  5
665
330
661
100
AcDbEntity
  8
3D-P-SANR-FIXT
100
AcDbVertex
100
AcDbPolyFaceMeshVertex
 10
-0.4419417232275009
 20
-10.99555850028991
 30
-0.0000000000012993
 70
   192
  0
VERTEX
  5
666
330
661
100
AcDbEntity
  8
3D-P-SANR-FIXT
100
AcDbVertex
100
AcDbPolyFaceMeshVertex
 10
-0.3124999925494194
 20
-10.89623379707336
 30
-0.0000000000012986
 70
   192
  0
VERTEX
  5
667
330
661
100
AcDbEntity
  8
3D-P-SANR-FIXT
100
AcDbVertex
100
AcDbPolyFaceMeshVertex
 10
-0.1617619022727012
 20
-10.83379626274108
 30
-0.0000000000012981
 70
   192
  0
VERTEX
  5
668
330
661
100
AcDbEntity
  8
3D-P-SANR-FIXT
100
AcDbVertex
100
AcDbPolyFaceMeshVertex
 10
0.0000000000007468
 20
-10.81250023841858
 30
-0.000000000001298
 70
   192
  0
VERTEX
  5
669
330
661
100
AcDbEntity
  8
3D-P-SANR-FIXT
100
AcDbVertex
100
AcDbPolyFaceMeshVertex
 10
0.1617619022727012
 20
-10.83379626274108
 30
-0.0000000000012981
 70
   192
  0
VERTEX
  5
66A
330
661
100
AcDbEntity
  8
3D-P-SANR-FIXT
100
AcDbVertex
100
AcDbPolyFaceMeshVertex
 10
0.3124999925494194
 20
-10.89623379707336
 30
-0.0000000000012985
 70
   192
  0
VERTEX
  5
66B
330
661
100
AcDbEntity
  8
3D-P-SANR-FIXT
100
AcDbVertex
100
AcDbPolyFaceMeshVertex
 10
0.4419417232275009
 20
-10.99555850028991
 30
-0.0000000000012991
 70
   192
  0
VERTEX
  5
66C
330
661
100
AcDbEntity
  8
3D-P-SANR-FIXT
100
AcDbVertex
100
AcDbPolyFaceMeshVertex
 10
0.5412658900022506
 20
-11.12499976158142
 30
-0.0000000000013
 70
   192
  0
VERTEX
  5
66D
330
661
100
AcDbEntity
  8
3D-P-SANR-FIXT
100
AcDbVertex
100
AcDbPolyFaceMeshVertex
 10
0.6037036478519439
 20
-11.27573776245117
 30
-0.000000000001301
 70
   192
  0
VERTEX
  5
66E
330
661
100
AcDbEntity
  8
3D-P-SANR-FIXT
100
AcDbVertex
100
AcDbPolyFaceMeshVertex
 10
0.6249999850988388
 20
-11.4375
 30
-0.0000000000013021
 70
   192
  0
VERTEX
  5
66F
330
661
100
AcDbEntity
  8
3D-P-SANR-FIXT
100
AcDbVertex
100
AcDbPolyFaceMeshVertex
 10
0.6249999850988388
 20
-11.4375
 30
-0.2500000074505805
 70
   192
  0
VERTEX
  5
670
330
661
100
AcDbEntity
  8
3D-P-SANR-FIXT
100
AcDbVertex
100
AcDbPolyFaceMeshVertex
 10
0.6037036478519439
 20
-11.27573776245117
 30
-0.2500000074505805
 70
   192
  0
VERTEX
  5
671
330
661
100
AcDbEntity
  8
3D-P-SANR-FIXT
100
AcDbVertex
100
AcDbPolyFaceMeshVertex
 10
0.5412658900022506
 20
-11.12499976158142
 30
-0.2500000074505805
 70
   192
  0
VERTEX
  5
672
330
661
100
AcDbEntity
  8
3D-P-SANR-FIXT
100
AcDbVertex
100
AcDbPolyFaceMeshVertex
 10
0.4419417232275009
 20
-10.99555850028991
 30
-0.2500000074505805
 70
   192
  0
VERTEX
  5
673
330
661
100
AcDbEntity
  8
3D-P-SANR-FIXT
100
AcDbVertex
100
AcDbPolyFaceMeshVertex
 10
0.3124999925494194
 20
-10.89623379707336
 30
-0.2500000074505805
 70
   192
  0
VERTEX
  5
674
330
661
100
AcDbEntity
  8
3D-P-SANR-FIXT
100
AcDbVertex
100
AcDbPolyFaceMeshVertex
 10
0.1617619022727012
 20
-10.83379626274108
 30
-0.2500000074505805
 70
   192
  0
VERTEX
  5
675
330
661
100
AcDbEntity
  8
3D-P-SANR-FIXT
100
AcDbVertex
100
AcDbPolyFaceMeshVertex
 10
0.0000000000007467
 20
-10.81250023841858
 30
-0.2500000074505805
 70
   192
  0
VERTEX
  5
676
330
661
100
AcDbEntity
  8
3D-P-SANR-FIXT
100
AcDbVertex
100
AcDbPolyFaceMeshVertex
 10
-0.1617619022727012
 20
-10.83379626274108
 30
-0.2500000074505805
 70
   192
  0
VERTEX
  5
677
330
661
100
AcDbEntity
  8
3D-P-SANR-FIXT
100
AcDbVertex
100
AcDbPolyFaceMeshVertex
 10
-0.3124999925494194
 20
-10.89623379707336
 30
-0.2500000074505805
 70
   192
  0
VERTEX
  5
678
330
661
100
AcDbEntity
  8
3D-P-SANR-FIXT
100
AcDbVertex
100
AcDbPolyFaceMeshVertex
 10
-0.4419417232275009
 20
-10.99555850028991
 30
-0.2500000074505805
 70
   192
  0
VERTEX
  5
679
330
661
100
AcDbEntity
  8
3D-P-SANR-FIXT
100
AcDbVertex
100
AcDbPolyFaceMeshVertex
 10
-0.5412658900022506
 20
-11.12499976158142
 30
-0.2500000074505805
 70
   192
  0
VERTEX
  5
67A
330
661
100
AcDbEntity
  8
3D-P-SANR-FIXT
100
AcDbVertex
100
AcDbPolyFaceMeshVertex
 10
-0.6037036478519439
 20
-11.27573776245117
 30
-0.2500000074505805
 70
   192
  0
VERTEX
  5
67B
330
661
100
AcDbEntity
  8
3D-P-SANR-FIXT
100
AcDbVertex
100
AcDbPolyFaceMeshVertex
 10
-0.6249999850988388
 20
-11.4375
 30
-0.2500000074505805
 70
   192
  0
VERTEX
  5
67C
330
661
100
AcDbEntity
  8
3D-P-SANR-FIXT
100
AcDbFaceRecord
 10
0.0
 20
0.0
 30
0.0
 70
   128
 71
    13
 72
    14
 73
   -15
 74
    12
  0
VERTEX
  5
67D
330
661
100
AcDbEntity
  8
3D-P-SANR-FIXT
100
AcDbFaceRecord
 10
0.0
 20
0.0
 30
0.0
 70
   128
 71
   -12
 72
    15
 73
   -16
 74
    11
  0
VERTEX
  5
67E
330
661
100
AcDbEntity
  8
3D-P-SANR-FIXT
100
AcDbFaceRecord
 10
0.0
 20
0.0
 30
0.0
 70
   128
 71
   -10
 72
    17
 73
   -18
 74
     9
  0
VERTEX
  5
67F
330
661
100
AcDbEntity
  8
3D-P-SANR-FIXT
100
AcDbFaceRecord
 10
0.0
 20
0.0
 30
0.0
 70
   128
 71
   -11
 72
    16
 73
   -17
 74
    10
  0
VERTEX
  5
680
330
661
100
AcDbEntity
  8
3D-P-SANR-FIXT
100
AcDbFaceRecord
 10
0.0
 20
0.0
 30
0.0
 70
   128
 71
    -9
 72
    18
 73
   -19
 74
     8
  0
VERTEX
  5
681
330
661
100
AcDbEntity
  8
3D-P-SANR-FIXT
100
AcDbFaceRecord
 10
0.0
 20
0.0
 30
0.0
 70
   128
 71
   -20
 72
     7
 73
    -8
 74
    19
  0
VERTEX
  5
682
330
661
100
AcDbEntity
  8
3D-P-SANR-FIXT
100
AcDbFaceRecord
 10
0.0
 20
0.0
 30
0.0
 70
   128
 71
    -6
 72
    21
 73
   -22
 74
     5
  0
VERTEX
  5
683
330
661
100
AcDbEntity
  8
3D-P-SANR-FIXT
100
AcDbFaceRecord
 10
0.0
 20
0.0
 30
0.0
 70
   128
 71
    -5
 72
    22
 73
   -23
 74
     4
  0
VERTEX
  5
684
330
661
100
AcDbEntity
  8
3D-P-SANR-FIXT
100
AcDbFaceRecord
 10
0.0
 20
0.0
 30
0.0
 70
   128
 71
    -3
 72
    24
 73
   -25
 74
     2
  0
VERTEX
  5
685
330
661
100
AcDbEntity
  8
3D-P-SANR-FIXT
100
AcDbFaceRecord
 10
0.0
 20
0.0
 30
0.0
 70
   128
 71
    -4
 72
    23
 73
   -24
 74
     3
  0
VERTEX
  5
686
330
661
100
AcDbEntity
  8
3D-P-SANR-FIXT
100
AcDbFaceRecord
 10
0.0
 20
0.0
 30
0.0
 70
   128
 71
    -2
 72
    25
 73
    26
 74
     1
  0
VERTEX
  5
687
330
661
100
AcDbEntity
  8
3D-P-SANR-FIXT
100
AcDbFaceRecord
 10
0.0
 20
0.0
 30
0.0
 70
   128
 71
   -21
 72
     6
 73
    -7
 74
    20
  0
SEQEND
  5
688
330
661
100
AcDbEntity
  8
3D-P-SANR-FIXT
  0
POLYLINE
  5
689
330
75
100
AcDbEntity
  8
3D-P-SANR-FIXT
100
AcDbPolyFaceMesh
 66
     1
 10
0.0
 20
0.0
 30
0.0
 70
    64
 71
    26
 72
    12
1001
REVIT
1002
{
1070
     1
1000
14316
1002
}
1002
{
1070
     4
1000
14599
1002
}
1002
{
1070
     2
1000
-2001160
1002
}
  0
VERTEX
  5
68A
330
689
100
AcDbEntity
  8
3D-P-SANR-FIXT
100
AcDbVertex
100
AcDbPolyFaceMeshVertex
 10
-3.812500119209289
 20
-8.999999999999998
 30
-0.0000000000012861
 70
   192
  0
VERTEX
  5
68B
330
689
100
AcDbEntity
  8
3D-P-SANR-FIXT
100
AcDbVertex
100
AcDbPolyFaceMeshVertex
 10
-3.818888783454894
 20
-9.048528671264646
 30
-0.0000000000012865
 70
   192
  0
VERTEX
  5
68C
330
689
100
AcDbEntity
  8
3D-P-SANR-FIXT
100
AcDbVertex
100
AcDbPolyFaceMeshVertex
 10
-3.837620258331298
 20
-9.093749999999998
 30
-0.0000000000012868
 70
   192
  0
VERTEX
  5
68D
330
689
100
AcDbEntity
  8
3D-P-SANR-FIXT
100
AcDbVertex
100
AcDbPolyFaceMeshVertex
 10
-3.867417454719543
 20
-9.132582664489744
 30
-0.000000000001287
 70
   192
  0
VERTEX
  5
68E
330
689
100
AcDbEntity
  8
3D-P-SANR-FIXT
100
AcDbVertex
100
AcDbPolyFaceMeshVertex
 10
-3.906250119209289
 20
-9.16237950325012
 30
-0.0000000000012872
 70
   192
  0
VERTEX
  5
68F
330
689
100
AcDbEntity
  8
3D-P-SANR-FIXT
100
AcDbVertex
100
AcDbPolyFaceMeshVertex
 10
-3.95147144794464
 20
-9.181111335754392
 30
-0.0000000000012874
 70
   192
  0
VERTEX
  5
690
330
689
100
AcDbEntity
  8
3D-P-SANR-FIXT
100
AcDbVertex
100
AcDbPolyFaceMeshVertex
 10
-4.000000119209288
 20
-9.187499999999998
 30
-0.0000000000012874
 70
   192
  0
VERTEX
  5
691
330
689
100
AcDbEntity
  8
3D-P-SANR-FIXT
100
AcDbVertex
100
AcDbPolyFaceMeshVertex
 10
-4.048528432846068
 20
-9.181111335754392
 30
-0.0000000000012874
 70
   192
  0
VERTEX
  5
692
330
689
100
AcDbEntity
  8
3D-P-SANR-FIXT
100
AcDbVertex
100
AcDbPolyFaceMeshVertex
 10
-4.093750119209288
 20
-9.16237950325012
 30
-0.0000000000012873
 70
   192
  0
VERTEX
  5
693
330
689
100
AcDbEntity
  8
3D-P-SANR-FIXT
100
AcDbVertex
100
AcDbPolyFaceMeshVertex
 10
-4.132582426071166
 20
-9.132582664489744
 30
-0.0000000000012871
 70
   192
  0
VERTEX
  5
694
330
689
100
AcDbEntity
  8
3D-P-SANR-FIXT
100
AcDbVertex
100
AcDbPolyFaceMeshVertex
 10
-4.16237962245941
 20
-9.093749999999998
 30
-0.0000000000012868
 70
   192
  0
VERTEX
  5
695
330
689
100
AcDbEntity
  8
3D-P-SANR-FIXT
100
AcDbVertex
100
AcDbPolyFaceMeshVertex
 10
-4.181111097335814
 20
-9.048528671264646
 30
-0.0000000000012865
 70
   192
  0
VERTEX
  5
696
330
689
100
AcDbEntity
  8
3D-P-SANR-FIXT
100
AcDbVertex
100
AcDbPolyFaceMeshVertex
 10
-4.187500119209288
 20
-8.999999999999998
 30
-0.0000000000012862
 70
   192
  0
VERTEX
  5
697
330
689
100
AcDbEntity
  8
3D-P-SANR-FIXT
100
AcDbVertex
100
AcDbPolyFaceMeshVertex
 10
-4.187500119209288
 20
-8.999999999999998
 30
-0.2500000074505805
 70
   192
  0
VERTEX
  5
698
330
689
100
AcDbEntity
  8
3D-P-SANR-FIXT
100
AcDbVertex
100
AcDbPolyFaceMeshVertex
 10
-4.181111097335814
 20
-9.048528671264646
 30
-0.2500000074505805
 70
   192
  0
VERTEX
  5
699
330
689
100
AcDbEntity
  8
3D-P-SANR-FIXT
100
AcDbVertex
100
AcDbPolyFaceMeshVertex
 10
-4.16237962245941
 20
-9.093749999999998
 30
-0.2500000074505805
 70
   192
  0
VERTEX
  5
69A
330
689
100
AcDbEntity
  8
3D-P-SANR-FIXT
100
AcDbVertex
100
AcDbPolyFaceMeshVertex
 10
-4.132582426071166
 20
-9.132582664489744
 30
-0.2500000074505805
 70
   192
  0
VERTEX
  5
69B
330
689
100
AcDbEntity
  8
3D-P-SANR-FIXT
100
AcDbVertex
100
AcDbPolyFaceMeshVertex
 10
-4.093750119209288
 20
-9.16237950325012
 30
-0.2500000074505805
 70
   192
  0
VERTEX
  5
69C
330
689
100
AcDbEntity
  8
3D-P-SANR-FIXT
100
AcDbVertex
100
AcDbPolyFaceMeshVertex
 10
-4.048528432846068
 20
-9.181111335754392
 30
-0.2500000074505805
 70
   192
  0
VERTEX
  5
69D
330
689
100
AcDbEntity
  8
3D-P-SANR-FIXT
100
AcDbVertex
100
AcDbPolyFaceMeshVertex
 10
-4.000000119209288
 20
-9.187499999999998
 30
-0.2500000074505805
 70
   192
  0
VERTEX
  5
69E
330
689
100
AcDbEntity
  8
3D-P-SANR-FIXT
100
AcDbVertex
100
AcDbPolyFaceMeshVertex
 10
-3.95147144794464
 20
-9.181111335754392
 30
-0.2500000074505805
 70
   192
  0
VERTEX
  5
69F
330
689
100
AcDbEntity
  8
3D-P-SANR-FIXT
100
AcDbVertex
100
AcDbPolyFaceMeshVertex
 10
-3.906250119209289
 20
-9.16237950325012
 30
-0.2500000074505805
 70
   192
  0
VERTEX
  5
6A0
330
689
100
AcDbEntity
  8
3D-P-SANR-FIXT
100
AcDbVertex
100
AcDbPolyFaceMeshVertex
 10
-3.867417454719543
 20
-9.132582664489744
 30
-0.2500000074505805
 70
   192
  0
VERTEX
  5
6A1
330
689
100
AcDbEntity
  8
3D-P-SANR-FIXT
100
AcDbVertex
100
AcDbPolyFaceMeshVertex
 10
-3.837620258331298
 20
-9.093749999999998
 30
-0.2500000074505805
 70
   192
  0
VERTEX
  5
6A2
330
689
100
AcDbEntity
  8
3D-P-SANR-FIXT
100
AcDbVertex
100
AcDbPolyFaceMeshVertex
 10
-3.818888783454894
 20
-9.048528671264646
 30
-0.2500000074505805
 70
   192
  0
VERTEX
  5
6A3
330
689
100
AcDbEntity
  8
3D-P-SANR-FIXT
100
AcDbVertex
100
AcDbPolyFaceMeshVertex
 10
-3.812500119209289
 20
-8.999999999999998
 30
-0.2500000074505805
 70
   192
  0
VERTEX
  5
6A4
330
689
100
AcDbEntity
  8
3D-P-SANR-FIXT
100
AcDbFaceRecord
 10
0.0
 20
0.0
 30
0.0
 70
   128
 71
    13
 72
    14
 73
   -15
 74
    12
  0
VERTEX
  5
6A5
330
689
100
AcDbEntity
  8
3D-P-SANR-FIXT
100
AcDbFaceRecord
 10
0.0
 20
0.0
 30
0.0
 70
   128
 71
   -12
 72
    15
 73
   -16
 74
    11
  0
VERTEX
  5
6A6
330
689
100
AcDbEntity
  8
3D-P-SANR-FIXT
100
AcDbFaceRecord
 10
0.0
 20
0.0
 30
0.0
 70
   128
 71
   -10
 72
    17
 73
   -18
 74
     9
  0
VERTEX
  5
6A7
330
689
100
AcDbEntity
  8
3D-P-SANR-FIXT
100
AcDbFaceRecord
 10
0.0
 20
0.0
 30
0.0
 70
   128
 71
   -11
 72
    16
 73
   -17
 74
    10
  0
VERTEX
  5
6A8
330
689
100
AcDbEntity
  8
3D-P-SANR-FIXT
100
AcDbFaceRecord
 10
0.0
 20
0.0
 30
0.0
 70
   128
 71
    -9
 72
    18
 73
   -19
 74
     8
  0
VERTEX
  5
6A9
330
689
100
AcDbEntity
  8
3D-P-SANR-FIXT
100
AcDbFaceRecord
 10
0.0
 20
0.0
 30
0.0
 70
   128
 71
   -20
 72
     7
 73
    -8
 74
    19
  0
VERTEX
  5
6AA
330
689
100
AcDbEntity
  8
3D-P-SANR-FIXT
100
AcDbFaceRecord
 10
0.0
 20
0.0
 30
0.0
 70
   128
 71
    -6
 72
    21
 73
   -22
 74
     5
  0
VERTEX
  5
6AB
330
689
100
AcDbEntity
  8
3D-P-SANR-FIXT
100
AcDbFaceRecord
 10
0.0
 20
0.0
 30
0.0
 70
   128
 71
    -5
 72
    22
 73
   -23
 74
     4
  0
VERTEX
  5
6AC
330
689
100
AcDbEntity
  8
3D-P-SANR-FIXT
100
AcDbFaceRecord
 10
0.0
 20
0.0
 30
0.0
 70
   128
 71
    -3
 72
    24
 73
   -25
 74
     2
  0
VERTEX
  5
6AD
330
689
100
AcDbEntity
  8
3D-P-SANR-FIXT
100
AcDbFaceRecord
 10
0.0
 20
0.0
 30
0.0
 70
   128
 71
    -4
 72
    23
 73
   -24
 74
     3
  0
VERTEX
  5
6AE
330
689
100
AcDbEntity
  8
3D-P-SANR-FIXT
100
AcDbFaceRecord
 10
0.0
 20
0.0
 30
0.0
 70
   128
 71
    -2
 72
    25
 73
    26
 74
     1
  0
VERTEX
  5
6AF
330
689
100
AcDbEntity
  8
3D-P-SANR-FIXT
100
AcDbFaceRecord
 10
0.0
 20
0.0
 30
0.0
 70
   128
 71
   -21
 72
     6
 73
    -7
 74
    20
  0
SEQEND
  5
6B0
330
689
100
AcDbEntity
  8
3D-P-SANR-FIXT
  0
POLYLINE
  5
6B1
330
75
100
AcDbEntity
  8
3D-P-SANR-FIXT
100
AcDbPolyFaceMesh
 66
     1
 10
0.0
 20
0.0
 30
0.0
 70
    64
 71
    26
 72
    12
1001
REVIT
1002
{
1070
     1
1000
14316
1002
}
1002
{
1070
     4
1000
14599
1002
}
1002
{
1070
     2
1000
-2001160
1002
}
  0
VERTEX
  5
6B2
330
6B1
100
AcDbEntity
  8
3D-P-SANR-FIXT
100
AcDbVertex
100
AcDbPolyFaceMeshVertex
 10
-4.187500119209288
 20
-8.999999999999998
 30
-0.0000000000012862
 70
   192
  0
VERTEX
  5
6B3
330
6B1
100
AcDbEntity
  8
3D-P-SANR-FIXT
100
AcDbVertex
100
AcDbPolyFaceMeshVertex
 10
-4.181111097335814
 20
-8.951471328735349
 30
-0.0000000000012858
 70
   192
  0
VERTEX
  5
6B4
330
6B1
100
AcDbEntity
  8
3D-P-SANR-FIXT
100
AcDbVertex
100
AcDbPolyFaceMeshVertex
 10
-4.16237962245941
 20
-8.906249999999998
 30
-0.0000000000012855
 70
   192
  0
VERTEX
  5
6B5
330
6B1
100
AcDbEntity
  8
3D-P-SANR-FIXT
100
AcDbVertex
100
AcDbPolyFaceMeshVertex
 10
-4.132582426071166
 20
-8.867417335510252
 30
-0.0000000000012853
 70
   192
  0
VERTEX
  5
6B6
330
6B1
100
AcDbEntity
  8
3D-P-SANR-FIXT
100
AcDbVertex
100
AcDbPolyFaceMeshVertex
 10
-4.093750119209288
 20
-8.837620496749876
 30
-0.0000000000012851
 70
   192
  0
VERTEX
  5
6B7
330
6B1
100
AcDbEntity
  8
3D-P-SANR-FIXT
100
AcDbVertex
100
AcDbPolyFaceMeshVertex
 10
-4.048528432846068
 20
-8.818888664245603
 30
-0.0000000000012849
 70
   192
  0
VERTEX
  5
6B8
330
6B1
100
AcDbEntity
  8
3D-P-SANR-FIXT
100
AcDbVertex
100
AcDbPolyFaceMeshVertex
 10
-4.000000119209288
 20
-8.812499999999998
 30
-0.0000000000012849
 70
   192
  0
VERTEX
  5
6B9
330
6B1
100
AcDbEntity
  8
3D-P-SANR-FIXT
100
AcDbVertex
100
AcDbPolyFaceMeshVertex
 10
-3.95147144794464
 20
-8.818888664245603
 30
-0.0000000000012849
 70
   192
  0
VERTEX
  5
6BA
330
6B1
100
AcDbEntity
  8
3D-P-SANR-FIXT
100
AcDbVertex
100
AcDbPolyFaceMeshVertex
 10
-3.906250119209289
 20
-8.837620496749876
 30
-0.000000000001285
 70
   192
  0
VERTEX
  5
6BB
330
6B1
100
AcDbEntity
  8
3D-P-SANR-FIXT
100
AcDbVertex
100
AcDbPolyFaceMeshVertex
 10
-3.867417454719543
 20
-8.867417335510252
 30
-0.0000000000012852
 70
   192
  0
VERTEX
  5
6BC
330
6B1
100
AcDbEntity
  8
3D-P-SANR-FIXT
100
AcDbVertex
100
AcDbPolyFaceMeshVertex
 10
-3.837620258331298
 20
-8.906249999999998
 30
-0.0000000000012855
 70
   192
  0
VERTEX
  5
6BD
330
6B1
100
AcDbEntity
  8
3D-P-SANR-FIXT
100
AcDbVertex
100
AcDbPolyFaceMeshVertex
 10
-3.818888783454894
 20
-8.951471328735349
 30
-0.0000000000012858
 70
   192
  0
VERTEX
  5
6BE
330
6B1
100
AcDbEntity
  8
3D-P-SANR-FIXT
100
AcDbVertex
100
AcDbPolyFaceMeshVertex
 10
-3.812500119209289
 20
-8.999999999999998
 30
-0.0000000000012861
 70
   192
  0
VERTEX
  5
6BF
330
6B1
100
AcDbEntity
  8
3D-P-SANR-FIXT
100
AcDbVertex
100
AcDbPolyFaceMeshVertex
 10
-3.812500119209289
 20
-8.999999999999998
 30
-0.2500000074505805
 70
   192
  0
VERTEX
  5
6C0
330
6B1
100
AcDbEntity
  8
3D-P-SANR-FIXT
100
AcDbVertex
100
AcDbPolyFaceMeshVertex
 10
-3.818888783454894
 20
-8.951471328735349
 30
-0.2500000074505805
 70
   192
  0
VERTEX
  5
6C1
330
6B1
100
AcDbEntity
  8
3D-P-SANR-FIXT
100
AcDbVertex
100
AcDbPolyFaceMeshVertex
 10
-3.837620258331298
 20
-8.906249999999998
 30
-0.2500000074505805
 70
   192
  0
VERTEX
  5
6C2
330
6B1
100
AcDbEntity
  8
3D-P-SANR-FIXT
100
AcDbVertex
100
AcDbPolyFaceMeshVertex
 10
-3.867417454719543
 20
-8.867417335510252
 30
-0.2500000074505805
 70
   192
  0
VERTEX
  5
6C3
330
6B1
100
AcDbEntity
  8
3D-P-SANR-FIXT
100
AcDbVertex
100
AcDbPolyFaceMeshVertex
 10
-3.906250119209289
 20
-8.837620496749876
 30
-0.2500000074505805
 70
   192
  0
VERTEX
  5
6C4
330
6B1
100
AcDbEntity
  8
3D-P-SANR-FIXT
100
AcDbVertex
100
AcDbPolyFaceMeshVertex
 10
-3.95147144794464
 20
-8.818888664245603
 30
-0.2500000074505805
 70
   192
  0
VERTEX
  5
6C5
330
6B1
100
AcDbEntity
  8
3D-P-SANR-FIXT
100
AcDbVertex
100
AcDbPolyFaceMeshVertex
 10
-4.000000119209288
 20
-8.812499999999998
 30
-0.2500000074505805
 70
   192
  0
VERTEX
  5
6C6
330
6B1
100
AcDbEntity
  8
3D-P-SANR-FIXT
100
AcDbVertex
100
AcDbPolyFaceMeshVertex
 10
-4.048528432846068
 20
-8.818888664245603
 30
-0.2500000074505805
 70
   192
  0
VERTEX
  5
6C7
330
6B1
100
AcDbEntity
  8
3D-P-SANR-FIXT
100
AcDbVertex
100
AcDbPolyFaceMeshVertex
 10
-4.093750119209288
 20
-8.837620496749876
 30
-0.2500000074505805
 70
   192
  0
VERTEX
  5
6C8
330
6B1
100
AcDbEntity
  8
3D-P-SANR-FIXT
100
AcDbVertex
100
AcDbPolyFaceMeshVertex
 10
-4.132582426071166
 20
-8.867417335510252
 30
-0.2500000074505805
 70
   192
  0
VERTEX
  5
6C9
330
6B1
100
AcDbEntity
  8
3D-P-SANR-FIXT
100
AcDbVertex
100
AcDbPolyFaceMeshVertex
 10
-4.16237962245941
 20
-8.906249999999998
 30
-0.2500000074505805
 70
   192
  0
VERTEX
  5
6CA
330
6B1
100
AcDbEntity
  8
3D-P-SANR-FIXT
100
AcDbVertex
100
AcDbPolyFaceMeshVertex
 10
-4.181111097335814
 20
-8.951471328735349
 30
-0.2500000074505805
 70
   192
  0
VERTEX
  5
6CB
330
6B1
100
AcDbEntity
  8
3D-P-SANR-FIXT
100
AcDbVertex
100
AcDbPolyFaceMeshVertex
 10
-4.187500119209288
 20
-8.999999999999998
 30
-0.2500000074505805
 70
   192
  0
VERTEX
  5
6CC
330
6B1
100
AcDbEntity
  8
3D-P-SANR-FIXT
100
AcDbFaceRecord
 10
0.0
 20
0.0
 30
0.0
 70
   128
 71
    13
 72
    14
 73
   -15
 74
    12
  0
VERTEX
  5
6CD
330
6B1
100
AcDbEntity
  8
3D-P-SANR-FIXT
100
AcDbFaceRecord
 10
0.0
 20
0.0
 30
0.0
 70
   128
 71
   -12
 72
    15
 73
   -16
 74
    11
  0
VERTEX
  5
6CE
330
6B1
100
AcDbEntity
  8
3D-P-SANR-FIXT
100
AcDbFaceRecord
 10
0.0
 20
0.0
 30
0.0
 70
   128
 71
   -10
 72
    17
 73
   -18
 74
     9
  0
VERTEX
  5
6CF
330
6B1
100
AcDbEntity
  8
3D-P-SANR-FIXT
100
AcDbFaceRecord
 10
0.0
 20
0.0
 30
0.0
 70
   128
 71
   -11
 72
    16
 73
   -17
 74
    10
  0
VERTEX
  5
6D0
330
6B1
100
AcDbEntity
  8
3D-P-SANR-FIXT
100
AcDbFaceRecord
 10
0.0
 20
0.0
 30
0.0
 70
   128
 71
    -9
 72
    18
 73
   -19
 74
     8
  0
VERTEX
  5
6D1
330
6B1
100
AcDbEntity
  8
3D-P-SANR-FIXT
100
AcDbFaceRecord
 10
0.0
 20
0.0
 30
0.0
 70
   128
 71
   -20
 72
     7
 73
    -8
 74
    19
  0
VERTEX
  5
6D2
330
6B1
100
AcDbEntity
  8
3D-P-SANR-FIXT
100
AcDbFaceRecord
 10
0.0
 20
0.0
 30
0.0
 70
   128
 71
    -6
 72
    21
 73
   -22
 74
     5
  0
VERTEX
  5
6D3
330
6B1
100
AcDbEntity
  8
3D-P-SANR-FIXT
100
AcDbFaceRecord
 10
0.0
 20
0.0
 30
0.0
 70
   128
 71
    -5
 72
    22
 73
   -23
 74
     4
  0
VERTEX
  5
6D4
330
6B1
100
AcDbEntity
  8
3D-P-SANR-FIXT
100
AcDbFaceRecord
 10
0.0
 20
0.0
 30
0.0
 70
   128
 71
    -3
 72
    24
 73
   -25
 74
     2
  0
VERTEX
  5
6D5
330
6B1
100
AcDbEntity
  8
3D-P-SANR-FIXT
100
AcDbFaceRecord
 10
0.0
 20
0.0
 30
0.0
 70
   128
 71
    -4
 72
    23
 73
   -24
 74
     3
  0
VERTEX
  5
6D6
330
6B1
100
AcDbEntity
  8
3D-P-SANR-FIXT
100
AcDbFaceRecord
 10
0.0
 20
0.0
 30
0.0
 70
   128
 71
    -2
 72
    25
 73
    26
 74
     1
  0
VERTEX
  5
6D7
330
6B1
100
AcDbEntity
  8
3D-P-SANR-FIXT
100
AcDbFaceRecord
 10
0.0
 20
0.0
 30
0.0
 70
   128
 71
   -21
 72
     6
 73
    -7
 74
    20
  0
SEQEND
  5
6D8
330
6B1
100
AcDbEntity
  8
3D-P-SANR-FIXT
  0
LINE
  5
6D9
330
75
100
AcDbEntity
  8
0
 62
    94
100
AcDbLine
 10
-0.6249999999992539
 20
-11.43750000000034
 30
-0.0000000000013023
 11
0.625000000000746
 21
-11.43750000000034
 31
-0.0000000000013021
1001
REVIT
1002
{
1070
     1
1000
14666
1002
}
1002
{
1070
     2
1000
-2007000
1002
}
1002
{
1070
     3
1000
-2007002
1002
}
  0
LINE
  5
6DA
330
75
100
AcDbEntity
  8
0
 62
    94
100
AcDbLine
 10
0.0000000000007461
 20
-10.81250000000034
 30
-0.000000000001298
 11
0.000000000000746
 21
-12.06250000000034
 31
-0.0000000000013064
1001
REVIT
1002
{
1070
     1
1000
14666
1002
}
1002
{
1070
     2
1000
-2007000
1002
}
1002
{
1070
     3
1000
-2007002
1002
}
  0
LINE
  5
6DB
330
75
100
AcDbEntity
  8
0
 62
    94
100
AcDbLine
 10
0.0000000000007467
 20
-11.4375000000003
 30
-4.800000000001301
 11
0.7200000000007466
 21
-11.43750000000031
 31
-4.080000000001302
1001
REVIT
1002
{
1070
     1
1000
14666
1002
}
1002
{
1070
     2
1000
-2007000
1002
}
1002
{
1070
     3
1000
-2007002
1002
}
  0
LINE
  5
6DC
330
75
100
AcDbEntity
  8
0
 62
    94
100
AcDbLine
 10
0.0000000000007467
 20
-11.4375000000003
 30
-4.800000000001301
 11
-0.7199999999992534
 21
-11.43750000000031
 31
-4.080000000001302
1001
REVIT
1002
{
1070
     1
1000
14666
1002
}
1002
{
1070
     2
1000
-2007000
1002
}
1002
{
1070
     3
1000
-2007002
1002
}
  0
LINE
  5
6DD
330
75
100
AcDbEntity
  8
0
 62
    94
100
AcDbLine
 10
0.0000000000007461
 20
-11.43750000000034
 30
-0.0000000000013022
 11
0.0000000000007467
 21
-11.4375000000003
 31
-4.800000000001301
1001
REVIT
1002
{
1070
     1
1000
14666
1002
}
1002
{
1070
     2
1000
-2007000
1002
}
1002
{
1070
     3
1000
-2007002
1002
}
  0
LINE
  5
6DE
330
75
100
AcDbEntity
  8
0
 62
     1
100
AcDbLine
 10
1.890720000000745
 20
-12.57178000000034
 30
-0.0000000000013097
 11
2.909280000000745
 21
-11.55322000000034
 31
-0.0000000000013026
1001
REVIT
1002
{
1070
     1
1000
14666
1002
}
1002
{
1070
     2
1000
-2007000
1002
}
1002
{
1070
     3
1000
-2007001
1002
}
  0
LINE
  5
6DF
330
75
100
AcDbEntity
  8
0
 62
     1
100
AcDbLine
 10
0.480000000000746
 20
-12.06250000000034
 30
-0.0000000000013064
 11
2.880000000000745
 21
-12.06250000000034
 31
-0.0000000000013061
1001
REVIT
1002
{
1070
     1
1000
14666
1002
}
1002
{
1070
     2
1000
-2007000
1002
}
1002
{
1070
     3
1000
-2007001
1002
}
  0
LINE
  5
6E0
330
75
100
AcDbEntity
  8
0
 62
     1
100
AcDbLine
 10
2.400000000000745
 20
-11.43750000000034
 30
-0.0000000000013019
 11
2.400000000000745
 21
-12.06250000000034
 31
-0.0000000000013062
1001
REVIT
1002
{
1070
     1
1000
14666
1002
}
1002
{
1070
     2
1000
-2007000
1002
}
1002
{
1070
     3
1000
-2007001
1002
}
  0
LINE
  5
6E1
330
75
100
AcDbEntity
  8
0
 62
     1
100
AcDbLine
 10
1.890720000000745
 20
-11.94678000000034
 30
-0.0000000000013054
 11
2.909280000000745
 21
-10.92822000000033
 31
-0.0000000000012984
1001
REVIT
1002
{
1070
     1
1000
14666
1002
}
1002
{
1070
     2
1000
-2007000
1002
}
1002
{
1070
     3
1000
-2007001
1002
}
  0
LINE
  5
6E2
330
75
100
AcDbEntity
  8
0
 62
     1
100
AcDbLine
 10
0.4800000000007462
 20
-11.43750000000034
 30
-0.0000000000013021
 11
2.880000000000745
 21
-11.43750000000034
 31
-0.0000000000013018
1001
REVIT
1002
{
1070
     1
1000
14666
1002
}
1002
{
1070
     2
1000
-2007000
1002
}
1002
{
1070
     3
1000
-2007001
1002
}
  0
CIRCLE
  5
6E3
330
75
100
AcDbEntity
  8
0
 62
    94
100
AcDbCircle
 10
-0.0000000000007461
 20
-11.43750000000034
 30
0.0000000000012246
 40
0.625
210
0.0000000000000001
220
0.0000000000000068
230
-1.0
1001
REVIT
1002
{
1070
     1
1000
14666
1002
}
1002
{
1070
     2
1000
-2007000
1002
}
1002
{
1070
     3
1000
-2007002
1002
}
  0
MTEXT
  5
6E4
330
75
100
AcDbEntity
  8
0
 62
     5
100
AcDbMText
 10
2.487720097960762
 20
-12.74848738807392
 30
-0.6062074860349059
 40
0.5665149700598802
 41
2.934941538461538
 71
     2
 72
     1
  1
\fArial|b0|i0|c0|p34|;Radius
 11
0.4082482904638589
 21
0.816496580927726
 31
0.4082482904638673
 73
     2
 44
0.9385317878468564
1001
REVIT
1002
{
1070
     1
1000
14666
1002
}
1002
{
1070
     2
1000
-2007000
1002
}
1002
{
1070
     3
1000
-2007003
1002
}
1001
ACAD
1000
MTEXTBEGIN
1070
    73
1070
     2
1070
    44
1040
0.9385317878468564
1070
    74
1070
     0
1000
MTEXTEND
1000
ACAD_MTEXT_BBRT
1070
    91
1071
        3
1070
    46
1040
1.25
1070
    64
1071
-989855744
1070
    65
1000

1070
    66
1000

1070
   442
1071
  5505103
1000
ACAD_MTEXT_BERT
  0
LINE
  5
6E5
330
75
100
AcDbEntity
  8
0
 62
    94
100
AcDbLine
 10
-4.000000000000251
 20
-9.00000000000031
 30
-4.800000000001285
 11
-3.280000000000251
 21
-9.000000000000316
 31
-4.080000000001286
1001
REVIT
1002
{
1070
     1
1000
14803
1002
}
1002
{
1070
     2
1000
-2007000
1002
}
1002
{
1070
     3
1000
-2007002
1002
}
  0
LINE
  5
6E6
330
75
100
AcDbEntity
  8
0
 62
    94
100
AcDbLine
 10
-4.000000000000251
 20
-9.00000000000031
 30
-4.800000000001285
 11
-4.720000000000251
 21
-9.000000000000316
 31
-4.080000000001286
1001
REVIT
1002
{
1070
     1
1000
14803
1002
}
1002
{
1070
     2
1000
-2007000
1002
}
1002
{
1070
     3
1000
-2007002
1002
}
  0
LINE
  5
6E7
330
75
100
AcDbEntity
  8
0
 62
    94
100
AcDbLine
 10
-4.000000000000251
 20
-9.000000000000342
 30
-0.0000000000012862
 11
-4.000000000000251
 21
-9.00000000000031
 31
-4.800000000001285
1001
REVIT
1002
{
1070
     1
1000
14803
1002
}
1002
{
1070
     2
1000
-2007000
1002
}
1002
{
1070
     3
1000
-2007002
1002
}
  0
LINE
  5
6E8
330
75
100
AcDbEntity
  8
0
 62
     1
100
AcDbLine
 10
-2.109280000000251
 20
-9.696780000000343
 30
-0.0000000000012907
 11
-1.090720000000251
 21
-8.678220000000342
 31
-0.0000000000012836
1001
REVIT
1002
{
1070
     1
1000
14803
1002
}
1002
{
1070
     2
1000
-2007000
1002
}
1002
{
1070
     3
1000
-2007001
1002
}
  0
LINE
  5
6E9
330
75
100
AcDbEntity
  8
0
 62
     1
100
AcDbLine
 10
-3.520000000000251
 20
-9.187500000000342
 30
-0.0000000000012874
 11
-1.120000000000251
 21
-9.187500000000342
 31
-0.0000000000012871
1001
REVIT
1002
{
1070
     1
1000
14803
1002
}
1002
{
1070
     2
1000
-2007000
1002
}
1002
{
1070
     3
1000
-2007001
1002
}
  0
LINE
  5
6EA
330
75
100
AcDbEntity
  8
0
 62
     1
100
AcDbLine
 10
-1.600000000000251
 20
-9.000000000000342
 30
-0.0000000000012859
 11
-1.600000000000251
 21
-9.187500000000342
 31
-0.0000000000012871
1001
REVIT
1002
{
1070
     1
1000
14803
1002
}
1002
{
1070
     2
1000
-2007000
1002
}
1002
{
1070
     3
1000
-2007001
1002
}
  0
LINE
  5
6EB
330
75
100
AcDbEntity
  8
0
 62
     1
100
AcDbLine
 10
-2.109280000000251
 20
-9.509280000000343
 30
-0.0000000000012894
 11
-1.090720000000251
 21
-8.490720000000342
 31
-0.0000000000012823
1001
REVIT
1002
{
1070
     1
1000
14803
1002
}
1002
{
1070
     2
1000
-2007000
1002
}
1002
{
1070
     3
1000
-2007001
1002
}
  0
LINE
  5
6EC
330
75
100
AcDbEntity
  8
0
 62
     1
100
AcDbLine
 10
-3.520000000000251
 20
-9.000000000000342
 30
-0.0000000000012861
 11
-1.120000000000251
 21
-9.000000000000342
 31
-0.0000000000012858
1001
REVIT
1002
{
1070
     1
1000
14803
1002
}
1002
{
1070
     2
1000
-2007000
1002
}
1002
{
1070
     3
1000
-2007001
1002
}
  0
CIRCLE
  5
6ED
330
75
100
AcDbEntity
  8
0
 62
    94
100
AcDbCircle
 10
4.000000000000251
 20
-9.000000000000342
 30
0.0000000000012246
 40
0.1875
210
0.0000000000000001
220
0.0000000000000068
230
-1.0
1001
REVIT
1002
{
1070
     1
1000
14803
1002
}
1002
{
1070
     2
1000
-2007000
1002
}
1002
{
1070
     3
1000
-2007002
1002
}
  0
MTEXT
  5
6EE
330
75
100
AcDbEntity
  8
0
 62
     5
100
AcDbMText
 10
-1.512279902040234
 20
-10.09223738807392
 30
-0.6062074860348884
 40
0.5665149700598802
 41
2.934941538461538
 71
     2
 72
     1
  1
\fArial|b0|i0|c0|p34|;Radius
 11
0.4082482904638588
 21
0.816496580927726
 31
0.4082482904638673
 73
     2
 44
0.9385317878468564
1001
REVIT
1002
{
1070
     1
1000
14803
1002
}
1002
{
1070
     2
1000
-2007000
1002
}
1002
{
1070
     3
1000
-2007003
1002
}
1001
ACAD
1000
MTEXTBEGIN
1070
    73
1070
     2
1070
    44
1040
0.9385317878468564
1070
    74
1070
     0
1000
MTEXTEND
1000
ACAD_MTEXT_BBRT
1070
    91
1071
        3
1070
    46
1040
1.25
1070
    64
1071
-989855744
1070
    65
1000

1070
    66
1000

1070
   442
1071
  5505103
1000
ACAD_MTEXT_BERT
  0
LINE
  5
6EF
330
75
100
AcDbEntity
  8
0
 62
    94
100
AcDbLine
 10
4.000000000000753
 20
-9.00000000000031
 30
-4.800000000001284
 11
4.720000000000752
 21
-9.000000000000316
 31
-4.080000000001284
1001
REVIT
1002
{
1070
     1
1000
14819
1002
}
1002
{
1070
     2
1000
-2007000
1002
}
1002
{
1070
     3
1000
-2007002
1002
}
  0
LINE
  5
6F0
330
75
100
AcDbEntity
  8
0
 62
    94
100
AcDbLine
 10
4.000000000000753
 20
-9.00000000000031
 30
-4.800000000001284
 11
3.280000000000753
 21
-9.000000000000316
 31
-4.080000000001284
1001
REVIT
1002
{
1070
     1
1000
14819
1002
}
1002
{
1070
     2
1000
-2007000
1002
}
1002
{
1070
     3
1000
-2007002
1002
}
  0
LINE
  5
6F1
330
75
100
AcDbEntity
  8
0
 62
    94
100
AcDbLine
 10
4.000000000000752
 20
-9.000000000000342
 30
-0.0000000000012852
 11
4.000000000000753
 21
-9.00000000000031
 31
-4.800000000001284
1001
REVIT
1002
{
1070
     1
1000
14819
1002
}
1002
{
1070
     2
1000
-2007000
1002
}
1002
{
1070
     3
1000
-2007002
1002
}
  0
LINE
  5
6F2
330
75
100
AcDbEntity
  8
0
 62
     1
100
AcDbLine
 10
5.890720000000753
 20
-9.696780000000343
 30
-0.0000000000012897
 11
6.909280000000753
 21
-8.678220000000342
 31
-0.0000000000012826
1001
REVIT
1002
{
1070
     1
1000
14819
1002
}
1002
{
1070
     2
1000
-2007000
1002
}
1002
{
1070
     3
1000
-2007001
1002
}
  0
LINE
  5
6F3
330
75
100
AcDbEntity
  8
0
 62
     1
100
AcDbLine
 10
4.480000000000752
 20
-9.187500000000342
 30
-0.0000000000012864
 11
6.880000000000753
 21
-9.187500000000342
 31
-0.0000000000012861
1001
REVIT
1002
{
1070
     1
1000
14819
1002
}
1002
{
1070
     2
1000
-2007000
1002
}
1002
{
1070
     3
1000
-2007001
1002
}
  0
LINE
  5
6F4
330
75
100
AcDbEntity
  8
0
 62
     1
100
AcDbLine
 10
6.400000000000752
 20
-9.000000000000342
 30
-0.0000000000012849
 11
6.400000000000752
 21
-9.187500000000342
 31
-0.0000000000012861
1001
REVIT
1002
{
1070
     1
1000
14819
1002
}
1002
{
1070
     2
1000
-2007000
1002
}
1002
{
1070
     3
1000
-2007001
1002
}
  0
LINE
  5
6F5
330
75
100
AcDbEntity
  8
0
 62
     1
100
AcDbLine
 10
5.890720000000753
 20
-9.509280000000343
 30
-0.0000000000012884
 11
6.909280000000753
 21
-8.490720000000342
 31
-0.0000000000012813
1001
REVIT
1002
{
1070
     1
1000
14819
1002
}
1002
{
1070
     2
1000
-2007000
1002
}
1002
{
1070
     3
1000
-2007001
1002
}
  0
LINE
  5
6F6
330
75
100
AcDbEntity
  8
0
 62
     1
100
AcDbLine
 10
4.480000000000752
 20
-9.000000000000342
 30
-0.0000000000012851
 11
6.880000000000753
 21
-9.000000000000342
 31
-0.0000000000012848
1001
REVIT
1002
{
1070
     1
1000
14819
1002
}
1002
{
1070
     2
1000
-2007000
1002
}
1002
{
1070
     3
1000
-2007001
1002
}
  0
CIRCLE
  5
6F7
330
75
100
AcDbEntity
  8
0
 62
    94
100
AcDbCircle
 10
-4.000000000000752
 20
-9.000000000000342
 30
0.0000000000012246
 40
0.1875
210
0.0000000000000001
220
0.0000000000000068
230
-1.0
1001
REVIT
1002
{
1070
     1
1000
14819
1002
}
1002
{
1070
     2
1000
-2007000
1002
}
1002
{
1070
     3
1000
-2007002
1002
}
  0
MTEXT
  5
6F8
330
75
100
AcDbEntity
  8
0
 62
     5
100
AcDbMText
 10
6.48772009796077
 20
-10.09223738807392
 30
-0.6062074860348873
 40
0.5665149700598802
 41
2.934941538461538
 71
     2
 72
     1
  1
\fArial|b0|i0|c0|p34|;Radius
 11
0.4082482904638588
 21
0.816496580927726
 31
0.4082482904638673
 73
     2
 44
0.9385317878468564
1001
REVIT
1002
{
1070
     1
1000
14819
1002
}
1002
{
1070
     2
1000
-2007000
1002
}
1002
{
1070
     3
1000
-2007003
1002
}
1001
ACAD
1000
MTEXTBEGIN
1070
    73
1070
     2
1070
    44
1040
0.9385317878468564
1070
    74
1070
     0
1000
MTEXTEND
1000
ACAD_MTEXT_BBRT
1070
    91
1071
        3
1070
    46
1040
1.25
1070
    64
1071
-989855744
1070
    65
1000

1070
    66
1000

1070
   442
1071
  5505103
1000
ACAD_MTEXT_BERT
  0
ENDSEC
  0
SECTION
  2
OBJECTS
  0
DICTIONARY
  5
C
330
0
100
AcDbDictionary
281
     1
  3
ACAD_COLOR
350
6B
  3
ACAD_GROUP
350
D
  3
ACAD_LAYOUT
350
6A
  3
ACAD_MATERIAL
350
10
  3
ACAD_MLEADERSTYLE
350
6E
  3
ACAD_MLINESTYLE
350
67
  3
ACAD_PLOTSETTINGS
350
69
  3
ACAD_PLOTSTYLENAME
350
E
  3
ACAD_SCALELIST
350
3A
  3
ACAD_TABLESTYLE
350
6C
  3
ACAD_VISUALSTYLE
350
29
  3
ACDB_RECOMPOSE_DATA
350
718
  3
AcDbVariableDictionary
350
707
  3
REVIT_DICTIONARY
350
701
  0
DICTIONARY
  5
6B
102
{ACAD_REACTORS
330
C
102
}
330
C
100
AcDbDictionary
281
     1
  0
DICTIONARY
  5
D
102
{ACAD_REACTORS
330
C
102
}
330
C
100
AcDbDictionary
281
     1
  0
DICTIONARY
  5
6A
102
{ACAD_REACTORS
330
C
102
}
330
C
100
AcDbDictionary
281
     1
  3
Layout1
350
74
  3
Layout2
350
7C
  3
Model
350
78
  0
DICTIONARY
  5
10
102
{ACAD_REACTORS
330
C
102
}
330
C
100
AcDbDictionary
281
     1
  3
ByBlock
350
19
  3
ByLayer
350
11
  3
Global
350
21
  3
RevitMaterialDefinition14599
350
6FE
  3
RevitMaterialDefinition6241
350
6FB
  0
DICTIONARY
  5
6E
102
{ACAD_REACTORS
330
C
102
}
330
C
100
AcDbDictionary
281
     1
  3
Standard
350
6F
  0
DICTIONARY
  5
67
102
{ACAD_REACTORS
330
C
102
}
330
C
100
AcDbDictionary
281
     1
  3
Standard
350
68
  0
DICTIONARY
  5
69
102
{ACAD_REACTORS
330
C
102
}
330
C
100
AcDbDictionary
281
     1
  0
ACDBDICTIONARYWDFLT
  5
E
102
{ACAD_REACTORS
330
C
102
}
330
C
100
AcDbDictionary
281
     1
  3
Normal
350
F
100
AcDbDictionaryWithDefault
340
F
  0
DICTIONARY
  5
3A
102
{ACAD_REACTORS
330
C
102
}
330
C
100
AcDbDictionary
281
     1
  3
A0
350
3B
  3
A1
350
3C
  3
A2
350
3D
  3
A3
350
3E
  3
A4
350
3F
  3
A5
350
40
  3
A6
350
41
  3
A7
350
42
  3
A8
350
43
  3
A9
350
44
  3
B0
350
45
  3
B1
350
46
  3
B2
350
47
  3
B3
350
48
  3
B4
350
49
  3
B5
350
4A
  3
B6
350
4B
  3
B7
350
4C
  3
B8
350
4D
  3
B9
350
4E
  3
C0
350
4F
  3
C1
350
50
  3
C2
350
51
  3
C3
350
52
  3
C4
350
53
  3
C5
350
54
  3
C6
350
55
  3
C7
350
56
  3
C8
350
57
  3
C9
350
58
  3
D0
350
59
  3
D1
350
5A
  3
D2
350
5B
  0
DICTIONARY
  5
6C
102
{ACAD_REACTORS
330
C
102
}
330
C
100
AcDbDictionary
281
     1
  3
Standard
350
6D
  0
DICTIONARY
  5
29
102
{ACAD_REACTORS
330
C
102
}
330
C
100
AcDbDictionary
281
     1
  3
2dWireframe
350
2F
  3
3D Hidden
350
31
  3
3dWireframe
350
30
  3
Basic
350
2E
  3
Brighten
350
35
  3
ColorChange
350
39
  3
Conceptual
350
32
  3
Dim
350
34
  3
Facepattern
350
38
  3
Flat
350
2A
  3
FlatWithEdges
350
2B
  3
Gouraud
350
2C
  3
GouraudWithEdges
350
2D
  3
Linepattern
350
37
  3
Realistic
350
33
  3
Thicken
350
36
  0
XRECORD
  5
718
102
{ACAD_REACTORS
330
C
102
}
330
C
100
AcDbXrecord
280
     1
 90
        1
330
6D
  0
DICTIONARY
  5
707
102
{ACAD_REACTORS
330
C
102
}
330
C
100
AcDbDictionary
281
     1
  3
CANNOSCALE
350
70B
  3
CMLEADERSTYLE
350
709
  3
CTABLESTYLE
350
708
  3
DIMASSOC
350
712
  3
HIDETEXT
350
711
  3
INDEXCTL
350
710
  3
LATITUDE
350
713
  3
LAYEREVAL
350
70D
  3
LAYERNOTIFY
350
70E
  3
LIGHTINGUNITS
350
70C
  3
LONGITUDE
350
714
  3
MSLTSCALE
350
70A
  3
SORTENTS
350
70F
  3
TIMEZONE
350
715
  0
DICTIONARY
  5
701
102
{ACAD_REACTORS
330
C
102
}
330
C
100
AcDbDictionary
281
     1
  3
REVIT_CATEGORY_MAPPING
350
702
  3
REVIT_SUB_CATEGORY_MAPPING
350
703
  0
LAYOUT
  5
74
102
{ACAD_XDICTIONARY
360
71D
102
}
102
{ACAD_REACTORS
330
6A
102
}
330
6A
100
AcDbPlotSettings
  1

  2

  4

  6

 40
0.0
 41
0.0
 42
0.0
 43
0.0
 44
0.0
 45
0.0
 46
0.0
 47
0.0
 48
0.0
 49
0.0
140
0.0
141
0.0
142
1.0
143
1.0
 70
   688
 72
     0
 73
     0
 74
     5
  7

 75
    16
147
1.0
148
0.0
149
0.0
100
AcDbLayout
  1
Layout1
 70
     1
 71
     1
 10
0.0
 20
0.0
 11
12.0
 21
9.0
 12
0.0
 22
0.0
 32
0.0
 14
0.0
 24
0.0
 34
0.0
 15
0.0
 25
0.0
 35
0.0
146
0.0
 13
0.0
 23
0.0
 33
0.0
 16
1.0
 26
0.0
 36
0.0
 17
0.0
 27
1.0
 37
0.0
 76
     0
330
71
  0
LAYOUT
  5
7C
102
{ACAD_XDICTIONARY
360
721
102
}
102
{ACAD_REACTORS
330
6A
102
}
330
6A
100
AcDbPlotSettings
  1

  2

  4

  6

 40
0.0
 41
0.0
 42
0.0
 43
0.0
 44
0.0
 45
0.0
 46
0.0
 47
0.0
 48
0.0
 49
0.0
140
0.0
141
0.0
142
1.0
143
1.0
 70
   688
 72
     0
 73
     0
 74
     5
  7

 75
    16
147
1.0
148
0.0
149
0.0
100
AcDbLayout
  1
Layout2
 70
     1
 71
     2
 10
0.0
 20
0.0
 11
12.0
 21
9.0
 12
0.0
 22
0.0
 32
0.0
 14
0.0
 24
0.0
 34
0.0
 15
0.0
 25
0.0
 35
0.0
146
0.0
 13
0.0
 23
0.0
 33
0.0
 16
1.0
 26
0.0
 36
0.0
 17
0.0
 27
1.0
 37
0.0
 76
     0
330
79
  0
LAYOUT
  5
78
102
{ACAD_XDICTIONARY
360
71F
102
}
102
{ACAD_REACTORS
330
6A
102
}
330
6A
100
AcDbPlotSettings
  1

  2

  4

  6

 40
0.0
 41
0.0
 42
0.0
 43
0.0
 44
0.0
 45
0.0
 46
0.0
 47
0.0
 48
0.0
 49
0.0
140
0.0
141
0.0
142
1.0
143
1.0
 70
  1712
 72
     0
 73
     0
 74
     0
  7

 75
     0
147
1.0
148
0.0
149
0.0
100
AcDbLayout
  1
Model
 70
     1
 71
     0
 10
0.0
 20
0.0
 11
12.0
 21
9.0
 12
0.0
 22
0.0
 32
0.0
 14
0.0
 24
0.0
 34
0.0
 15
0.0
 25
0.0
 35
0.0
146
0.0
 13
0.0
 23
0.0
 33
0.0
 16
1.0
 26
0.0
 36
0.0
 17
0.0
 27
1.0
 37
0.0
 76
     0
330
75
  0
MATERIAL
  5
19
102
{ACAD_XDICTIONARY
360
1A
102
}
102
{ACAD_REACTORS
330
10
102
}
330
10
100
AcDbMaterial
  1
ByBlock
 72
     0
 43
0.0208333333333333
 43
0.0
 43
0.0
 43
0.0
 43
0.0
 43
0.0208333333333333
 43
0.0
 43
0.0
 43
0.0
 43
0.0
 43
1.0
 43
0.0
 43
0.0
 43
0.0
 43
0.0
 43
1.0
 77
     0
 47
0.0208333333333333
 47
0.0
 47
0.0
 47
0.0
 47
0.0
 47
0.0208333333333333
 47
0.0
 47
0.0
 47
0.0
 47
0.0
 47
1.0
 47
0.0
 47
0.0
 47
0.0
 47
0.0
 47
1.0
171
     0
 49
0.0208333333333333
 49
0.0
 49
0.0
 49
0.0
 49
0.0
 49
0.0208333333333333
 49
0.0
 49
0.0
 49
0.0
 49
0.0
 49
1.0
 49
0.0
 49
0.0
 49
0.0
 49
0.0
 49
1.0
175
     0
142
0.0208333333333333
142
0.0
142
0.0
142
0.0
142
0.0
142
0.0208333333333333
142
0.0
142
0.0
142
0.0
142
0.0
142
1.0
142
0.0
142
0.0
142
0.0
142
0.0
142
1.0
179
     0
144
0.0208333333333333
144
0.0
144
0.0
144
0.0
144
0.0
144
0.0208333333333333
144
0.0
144
0.0
144
0.0
144
0.0
144
1.0
144
0.0
144
0.0
144
0.0
144
0.0
144
1.0
147
0.0208333333333333
147
0.0
147
0.0
147
0.0
147
0.0
147
0.0208333333333333
147
0.0
147
0.0
147
0.0
147
0.0
147
1.0
147
0.0
147
0.0
147
0.0
147
0.0
147
1.0
  0
MATERIAL
  5
11
102
{ACAD_XDICTIONARY
360
12
102
}
102
{ACAD_REACTORS
330
10
102
}
330
10
100
AcDbMaterial
  1
ByLayer
 72
     0
 43
0.0208333333333333
 43
0.0
 43
0.0
 43
0.0
 43
0.0
 43
0.0208333333333333
 43
0.0
 43
0.0
 43
0.0
 43
0.0
 43
1.0
 43
0.0
 43
0.0
 43
0.0
 43
0.0
 43
1.0
 77
     0
 47
0.0208333333333333
 47
0.0
 47
0.0
 47
0.0
 47
0.0
 47
0.0208333333333333
 47
0.0
 47
0.0
 47
0.0
 47
0.0
 47
1.0
 47
0.0
 47
0.0
 47
0.0
 47
0.0
 47
1.0
171
     0
 49
0.0208333333333333
 49
0.0
 49
0.0
 49
0.0
 49
0.0
 49
0.0208333333333333
 49
0.0
 49
0.0
 49
0.0
 49
0.0
 49
1.0
 49
0.0
 49
0.0
 49
0.0
 49
0.0
 49
1.0
175
     0
142
0.0208333333333333
142
0.0
142
0.0
142
0.0
142
0.0
142
0.0208333333333333
142
0.0
142
0.0
142
0.0
142
0.0
142
1.0
142
0.0
142
0.0
142
0.0
142
0.0
142
1.0
179
     0
144
0.0208333333333333
144
0.0
144
0.0
144
0.0
144
0.0
144
0.0208333333333333
144
0.0
144
0.0
144
0.0
144
0.0
144
1.0
144
0.0
144
0.0
144
0.0
144
0.0
144
1.0
147
0.0208333333333333
147
0.0
147
0.0
147
0.0
147
0.0
147
0.0208333333333333
147
0.0
147
0.0
147
0.0
147
0.0
147
1.0
147
0.0
147
0.0
147
0.0
147
0.0
147
1.0
  0
MATERIAL
  5
21
102
{ACAD_XDICTIONARY
360
22
102
}
102
{ACAD_REACTORS
330
10
102
}
330
10
100
AcDbMaterial
  1
Global
 72
     0
 43
0.0208333333333333
 43
0.0
 43
0.0
 43
0.0
 43
0.0
 43
0.0208333333333333
 43
0.0
 43
0.0
 43
0.0
 43
0.0
 43
1.0
 43
0.0
 43
0.0
 43
0.0
 43
0.0
 43
1.0
 77
     0
 47
0.0208333333333333
 47
0.0
 47
0.0
 47
0.0
 47
0.0
 47
0.0208333333333333
 47
0.0
 47
0.0
 47
0.0
 47
0.0
 47
1.0
 47
0.0
 47
0.0
 47
0.0
 47
0.0
 47
1.0
171
     0
 49
0.0208333333333333
 49
0.0
 49
0.0
 49
0.0
 49
0.0
 49
0.0208333333333333
 49
0.0
 49
0.0
 49
0.0
 49
0.0
 49
1.0
 49
0.0
 49
0.0
 49
0.0
 49
0.0
 49
1.0
175
     0
142
0.0208333333333333
142
0.0
142
0.0
142
0.0
142
0.0
142
0.0208333333333333
142
0.0
142
0.0
142
0.0
142
0.0
142
1.0
142
0.0
142
0.0
142
0.0
142
0.0
142
1.0
179
     0
144
0.0208333333333333
144
0.0
144
0.0
144
0.0
144
0.0
144
0.0208333333333333
144
0.0
144
0.0
144
0.0
144
0.0
144
1.0
144
0.0
144
0.0
144
0.0
144
0.0
144
1.0
147
0.0208333333333333
147
0.0
147
0.0
147
0.0
147
0.0
147
0.0208333333333333
147
0.0
147
0.0
147
0.0
147
0.0
147
1.0
147
0.0
147
0.0
147
0.0
147
0.0
147
1.0
  0
MATERIAL
  5
6FE
102
{ACAD_XDICTIONARY
360
6FF
102
}
102
{ACAD_REACTORS
330
10
102
}
330
10
100
AcDbMaterial
  1
RevitMaterialDefinition14599
 70
     1
 90
-1024133900
 71
     1
 91
-1024133900
  3
C:\DOCUME~1\ESPOSI~1\LOCALS~1\Temp
 73
     1
 76
     1
 45
0.5
 77
     0
175
     0
145
0.0
  0
MATERIAL
  5
6FB
102
{ACAD_XDICTIONARY
360
6FC
102
}
102
{ACAD_REACTORS
330
10
102
}
330
10
100
AcDbMaterial
  1
RevitMaterialDefinition6241
 70
     1
 90
-1024462087
 71
     1
 91
-1024462087
  3
C:\DOCUME~1\ESPOSI~1\LOCALS~1\Temp
 73
     1
 76
     1
 45
0.5
 77
     0
175
     0
145
0.0
  0
MLEADERSTYLE
  5
6F
102
{ACAD_REACTORS
330
6E
102
}
330
6E
100
AcDbMLeaderStyle
170
     2
171
     1
172
     0
 90
        2
 40
0.0
 41
0.0
173
     1
 91
-1056964608
340
63
 92
       -2
290
     1
 42
0.09
291
     1
 43
0.36
  3
Standard
 44
0.18
300

342
5D
174
     1
178
     6
175
     1
176
     0
 93
-1056964608
 45
0.18
292
     0
297
     0
 46
0.18
 94
-1056964608
 47
1.0
 49
1.0
140
1.0
293
     1
141
0.0
294
     1
177
     0
142
1.0
295
     0
296
     0
143
0.125
1001
ACAD_MLEADERVER
1070
     2
  0
MLINESTYLE
  5
68
102
{ACAD_REACTORS
330
67
102
}
330
67
100
AcDbMlineStyle
  2
STANDARD
 70
     0
  3

 62
   256
 51
90.0
 52
90.0
 71
     2
 49
0.5
 62
   256
  6
BYLAYER
 49
-0.5
 62
   256
  6
BYLAYER
  0
ACDBPLACEHOLDER
  5
F
102
{ACAD_REACTORS
330
E
102
}
330
E
  0
SCALE
  5
3B
102
{ACAD_REACTORS
330
3A
102
}
330
3A
100
AcDbScale
 70
     0
300
1:1
140
1.0
141
1.0
290
     1
  0
SCALE
  5
3C
102
{ACAD_REACTORS
330
3A
102
}
330
3A
100
AcDbScale
 70
     0
300
1:2
140
1.0
141
2.0
290
     0
  0
SCALE
  5
3D
102
{ACAD_REACTORS
330
3A
102
}
330
3A
100
AcDbScale
 70
     0
300
1:4
140
1.0
141
4.0
290
     0
  0
SCALE
  5
3E
102
{ACAD_REACTORS
330
3A
102
}
330
3A
100
AcDbScale
 70
     0
300
1:5
140
1.0
141
5.0
290
     0
  0
SCALE
  5
3F
102
{ACAD_REACTORS
330
3A
102
}
330
3A
100
AcDbScale
 70
     0
300
1:8
140
1.0
141
8.0
290
     0
  0
SCALE
  5
40
102
{ACAD_REACTORS
330
3A
102
}
330
3A
100
AcDbScale
 70
     0
300
1:10
140
1.0
141
10.0
290
     0
  0
SCALE
  5
41
102
{ACAD_REACTORS
330
3A
102
}
330
3A
100
AcDbScale
 70
     0
300
1:16
140
1.0
141
16.0
290
     0
  0
SCALE
  5
42
102
{ACAD_REACTORS
330
3A
102
}
330
3A
100
AcDbScale
 70
     0
300
1:20
140
1.0
141
20.0
290
     0
  0
SCALE
  5
43
102
{ACAD_REACTORS
330
3A
102
}
330
3A
100
AcDbScale
 70
     0
300
1:30
140
1.0
141
30.0
290
     0
  0
SCALE
  5
44
102
{ACAD_REACTORS
330
3A
102
}
330
3A
100
AcDbScale
 70
     0
300
1:40
140
1.0
141
40.0
290
     0
  0
SCALE
  5
45
102
{ACAD_REACTORS
330
3A
102
}
330
3A
100
AcDbScale
 70
     0
300
1:50
140
1.0
141
50.0
290
     0
  0
SCALE
  5
46
102
{ACAD_REACTORS
330
3A
102
}
330
3A
100
AcDbScale
 70
     0
300
1:100
140
1.0
141
100.0
290
     0
  0
SCALE
  5
47
102
{ACAD_REACTORS
330
3A
102
}
330
3A
100
AcDbScale
 70
     0
300
2:1
140
2.0
141
1.0
290
     0
  0
SCALE
  5
48
102
{ACAD_REACTORS
330
3A
102
}
330
3A
100
AcDbScale
 70
     0
300
4:1
140
4.0
141
1.0
290
     0
  0
SCALE
  5
49
102
{ACAD_REACTORS
330
3A
102
}
330
3A
100
AcDbScale
 70
     0
300
8:1
140
8.0
141
1.0
290
     0
  0
SCALE
  5
4A
102
{ACAD_REACTORS
330
3A
102
}
330
3A
100
AcDbScale
 70
     0
300
10:1
140
10.0
141
1.0
290
     0
  0
SCALE
  5
4B
102
{ACAD_REACTORS
330
3A
102
}
330
3A
100
AcDbScale
 70
     0
300
100:1
140
100.0
141
1.0
290
     0
  0
SCALE
  5
4C
102
{ACAD_REACTORS
330
3A
102
}
330
3A
100
AcDbScale
 70
     0
300
1/128" = 1'-0"
140
0.0078125
141
12.0
290
     0
  0
SCALE
  5
4D
102
{ACAD_REACTORS
330
3A
102
}
330
3A
100
AcDbScale
 70
     0
300
1/64" = 1'-0"
140
0.015625
141
12.0
290
     0
  0
SCALE
  5
4E
102
{ACAD_REACTORS
330
3A
102
}
330
3A
100
AcDbScale
 70
     0
300
1/32" = 1'-0"
140
0.03125
141
12.0
290
     0
  0
SCALE
  5
4F
102
{ACAD_REACTORS
330
3A
102
}
330
3A
100
AcDbScale
 70
     0
300
1/16" = 1'-0"
140
0.0625
141
12.0
290
     0
  0
SCALE
  5
50
102
{ACAD_REACTORS
330
3A
102
}
330
3A
100
AcDbScale
 70
     0
300
3/32" = 1'-0"
140
0.09375
141
12.0
290
     0
  0
SCALE
  5
51
102
{ACAD_REACTORS
330
3A
102
}
330
3A
100
AcDbScale
 70
     0
300
1/8" = 1'-0"
140
0.125
141
12.0
290
     0
  0
SCALE
  5
52
102
{ACAD_REACTORS
330
3A
102
}
330
3A
100
AcDbScale
 70
     0
300
3/16" = 1'-0"
140
0.1875
141
12.0
290
     0
  0
SCALE
  5
53
102
{ACAD_REACTORS
330
3A
102
}
330
3A
100
AcDbScale
 70
     0
300
1/4" = 1'-0"
140
0.25
141
12.0
290
     0
  0
SCALE
  5
54
102
{ACAD_REACTORS
330
3A
102
}
330
3A
100
AcDbScale
 70
     0
300
3/8" = 1'-0"
140
0.375
141
12.0
290
     0
  0
SCALE
  5
55
102
{ACAD_REACTORS
330
3A
102
}
330
3A
100
AcDbScale
 70
     0
300
1/2" = 1'-0"
140
0.5
141
12.0
290
     0
  0
SCALE
  5
56
102
{ACAD_REACTORS
330
3A
102
}
330
3A
100
AcDbScale
 70
     0
300
3/4" = 1'-0"
140
0.75
141
12.0
290
     0
  0
SCALE
  5
57
102
{ACAD_REACTORS
330
3A
102
}
330
3A
100
AcDbScale
 70
     0
300
1" = 1'-0"
140
1.0
141
12.0
290
     0
  0
SCALE
  5
58
102
{ACAD_REACTORS
330
3A
102
}
330
3A
100
AcDbScale
 70
     0
300
1-1/2" = 1'-0"
140
1.5
141
12.0
290
     0
  0
SCALE
  5
59
102
{ACAD_REACTORS
330
3A
102
}
330
3A
100
AcDbScale
 70
     0
300
3" = 1'-0"
140
3.0
141
12.0
290
     0
  0
SCALE
  5
5A
102
{ACAD_REACTORS
330
3A
102
}
330
3A
100
AcDbScale
 70
     0
300
6" = 1'-0"
140
6.0
141
12.0
290
     0
  0
SCALE
  5
5B
102
{ACAD_REACTORS
330
3A
102
}
330
3A
100
AcDbScale
 70
     0
300
1'-0" = 1'-0"
140
12.0
141
12.0
290
     0
  0
TABLESTYLE
  5
6D
102
{ACAD_XDICTIONARY
360
716
102
}
102
{ACAD_REACTORS
330
6C
102
}
330
6C
100
AcDbTableStyle
  3
Standard
 70
     0
 71
     0
 40
0.06
 41
0.06
280
     0
281
     0
  7
Standard
140
0.18
170
     2
 62
     0
 63
     7
283
     0
274
    -2
284
     1
 64
     0
275
    -2
285
     1
 65
     0
276
    -2
286
     1
 66
     0
277
    -2
287
     1
 67
     0
278
    -2
288
     1
 68
     0
279
    -2
289
     1
 69
     0
  7
Standard
140
0.25
170
     5
 62
     0
 63
     7
283
     0
274
    -2
284
     1
 64
     0
275
    -2
285
     1
 65
     0
276
    -2
286
     1
 66
     0
277
    -2
287
     1
 67
     0
278
    -2
288
     1
 68
     0
279
    -2
289
     1
 69
     0
  7
Standard
140
0.18
170
     5
 62
     0
 63
     7
283
     0
274
    -2
284
     1
 64
     0
275
    -2
285
     1
 65
     0
276
    -2
286
     1
 66
     0
277
    -2
287
     1
 67
     0
278
    -2
288
     1
 68
     0
279
    -2
289
     1
 69
     0
  0
VISUALSTYLE
  5
2F
102
{ACAD_REACTORS
330
29
102
}
330
29
100
AcDbVisualStyle
  2
2dWireframe
 70
     4
 71
     0
 72
     2
 73
     0
 90
        0
 40
-0.6
 41
-30.0
 62
     5
 63
     7
 74
     1
 91
        4
 64
     7
 65
   257
 75
     1
175
     1
 42
1.0
 92
        0
 66
   257
 43
1.0
 76
     1
 77
     6
 78
     2
 67
     7
 79
     5
170
     0
171
     0
290
     0
174
     0
 93
        1
 44
0.0
173
     0
291
     0
 45
0.0
1001
ACAD
1000
AcDbSavedByObjectVersion
1070
     0
  0
VISUALSTYLE
  5
31
102
{ACAD_REACTORS
330
29
102
}
330
29
100
AcDbVisualStyle
  2
3D Hidden
 70
     6
 71
     1
 72
     2
 73
     2
 90
        0
 40
-0.6
 41
-30.0
 62
     5
 63
     7
 74
     2
 91
        2
 64
     7
 65
   257
 75
     2
175
     1
 42
40.0
 92
        0
 66
   257
 43
1.0
 76
     1
 77
     6
 78
     2
 67
     7
 79
     3
170
     0
171
     0
290
     0
174
     0
 93
        1
 44
0.0
173
     0
291
     0
 45
0.0
1001
ACAD
1000
AcDbSavedByObjectVersion
1070
     0
  0
VISUALSTYLE
  5
30
102
{ACAD_REACTORS
330
29
102
}
330
29
100
AcDbVisualStyle
  2
3dWireframe
 70
     5
 71
     0
 72
     2
 73
     0
 90
        0
 40
-0.6
 41
-30.0
 62
     5
 63
     7
 74
     1
 91
        4
 64
     7
 65
   257
 75
     1
175
     1
 42
1.0
 92
        0
 66
   257
 43
1.0
 76
     1
 77
     6
 78
     2
 67
     7
 79
     5
170
     0
171
     0
290
     0
174
     0
 93
        1
 44
0.0
173
     0
291
     0
 45
0.0
1001
ACAD
1000
AcDbSavedByObjectVersion
1070
     0
  0
VISUALSTYLE
  5
2E
102
{ACAD_REACTORS
330
29
102
}
330
29
100
AcDbVisualStyle
  2
Basic
 70
     7
 71
     1
 72
     0
 73
     1
 90
        0
 40
-0.6
 41
-30.0
 62
     5
 63
     7
 74
     0
 91
        4
 64
     7
 65
   257
 75
     1
175
     1
 42
1.0
 92
        8
 66
     7
 43
1.0
 76
     1
 77
     6
 78
     2
 67
     7
 79
     5
170
     0
171
     0
290
     0
174
     0
 93
        1
 44
0.0
173
     0
291
     1
 45
0.0
1001
ACAD
1000
AcDbSavedByObjectVersion
1070
     0
  0
VISUALSTYLE
  5
35
102
{ACAD_REACTORS
330
29
102
}
330
29
100
AcDbVisualStyle
  2
Brighten
 70
    12
 71
     2
 72
     2
 73
     0
 90
        0
 40
-0.6
 41
-30.0
 62
     5
 63
     7
 74
     1
 91
        4
 64
     7
 65
   257
 75
     1
175
     1
 42
1.0
 92
        8
 66
     7
 43
1.0
 76
     1
 77
     6
 78
     2
 67
     7
 79
     5
170
     0
171
     0
290
     0
174
     0
 93
        1
 44
50.0
173
     0
291
     1
 45
0.0
1001
ACAD
1000
AcDbSavedByObjectVersion
1070
     0
  0
VISUALSTYLE
  5
39
102
{ACAD_REACTORS
330
29
102
}
330
29
100
AcDbVisualStyle
  2
ColorChange
 70
    16
 71
     2
 72
     2
 73
     3
 90
        0
 40
-0.6
 41
-30.0
 62
     5
 63
     8
 74
     1
 91
        4
 64
     7
 65
   257
 75
     1
175
     1
 42
1.0
 92
        8
 66
     8
 43
1.0
 76
     1
 77
     6
 78
     2
 67
     7
 79
     5
170
     0
171
     0
290
     0
174
     0
 93
        1
 44
0.0
173
     0
291
     1
 45
0.0
1001
ACAD
1000
AcDbSavedByObjectVersion
1070
     0
  0
VISUALSTYLE
  5
32
102
{ACAD_REACTORS
330
29
102
}
330
29
100
AcDbVisualStyle
  2
Conceptual
 70
     9
 71
     3
 72
     2
 73
     0
 90
        0
 40
-0.6
 41
-30.0
 62
     5
 63
     7
 74
     2
 91
        2
 64
     7
 65
   257
 75
     1
175
     1
 42
40.0
 92
        8
 66
     7
 43
1.0
 76
     1
 77
     6
 78
     2
 67
     7
 79
     3
170
     0
171
     0
290
     0
174
     0
 93
        1
 44
0.0
173
     0
291
     0
 45
0.0
1001
ACAD
1000
AcDbSavedByObjectVersion
1070
     0
  0
VISUALSTYLE
  5
34
102
{ACAD_REACTORS
330
29
102
}
330
29
100
AcDbVisualStyle
  2
Dim
 70
    11
 71
     2
 72
     2
 73
     0
 90
        0
 40
-0.6
 41
-30.0
 62
     5
 63
     7
 74
     1
 91
        4
 64
     7
 65
   257
 75
     1
175
     1
 42
1.0
 92
        8
 66
     7
 43
1.0
 76
     1
 77
     6
 78
     2
 67
     7
 79
     5
170
     0
171
     0
290
     0
174
     0
 93
        1
 44
-50.0
173
     0
291
     1
 45
0.0
1001
ACAD
1000
AcDbSavedByObjectVersion
1070
     0
  0
VISUALSTYLE
  5
38
102
{ACAD_REACTORS
330
29
102
}
330
29
100
AcDbVisualStyle
  2
Facepattern
 70
    15
 71
     2
 72
     2
 73
     0
 90
        0
 40
-0.6
 41
-30.0
 62
     5
 63
     7
 74
     1
 91
        4
 64
     7
 65
   257
 75
     1
175
     1
 42
1.0
 92
        8
 66
     7
 43
1.0
 76
     1
 77
     6
 78
     2
 67
     7
 79
     5
170
     0
171
     0
290
     0
174
     0
 93
        1
 44
0.0
173
     0
291
     1
 45
0.0
1001
ACAD
1000
AcDbSavedByObjectVersion
1070
     0
  0
VISUALSTYLE
  5
2A
102
{ACAD_REACTORS
330
29
102
}
330
29
100
AcDbVisualStyle
  2
Flat
 70
     0
 71
     2
 72
     1
 73
     1
 90
        2
 40
-0.6
 41
30.0
 62
     5
 63
     7
 74
     0
 91
        4
 64
     7
 65
   257
 75
     1
175
     1
 42
1.0
 92
        8
 66
     7
 43
1.0
 76
     1
 77
     6
 78
     2
 67
     7
 79
     5
170
     0
171
     0
290
     0
174
     0
 93
       13
 44
0.0
173
     0
291
     1
 45
0.0
1001
ACAD
1000
AcDbSavedByObjectVersion
1070
     0
  0
VISUALSTYLE
  5
2B
102
{ACAD_REACTORS
330
29
102
}
330
29
100
AcDbVisualStyle
  2
FlatWithEdges
 70
     1
 71
     2
 72
     1
 73
     1
 90
        2
 40
-0.6
 41
30.0
 62
     5
 63
     7
 74
     1
 91
        4
 64
     7
 65
   257
 75
     1
175
     1
 42
1.0
 92
        0
 66
   257
 43
1.0
 76
     1
 77
     6
 78
     2
 67
     7
 79
     5
170
     0
171
     0
290
     0
174
     0
 93
       13
 44
0.0
173
     0
291
     1
 45
0.0
1001
ACAD
1000
AcDbSavedByObjectVersion
1070
     0
  0
VISUALSTYLE
  5
2C
102
{ACAD_REACTORS
330
29
102
}
330
29
100
AcDbVisualStyle
  2
Gouraud
 70
     2
 71
     2
 72
     2
 73
     1
 90
        2
 40
-0.6
 41
30.0
 62
     5
 63
     7
 74
     0
 91
        4
 64
     7
 65
   257
 75
     1
175
     1
 42
1.0
 92
        0
 66
     7
 43
1.0
 76
     1
 77
     6
 78
     2
 67
     7
 79
     5
170
     0
171
     0
290
     0
174
     0
 93
       13
 44
0.0
173
     0
291
     1
 45
0.0
1001
ACAD
1000
AcDbSavedByObjectVersion
1070
     0
  0
VISUALSTYLE
  5
2D
102
{ACAD_REACTORS
330
29
102
}
330
29
100
AcDbVisualStyle
  2
GouraudWithEdges
 70
     3
 71
     2
 72
     2
 73
     1
 90
        2
 40
-0.6
 41
30.0
 62
     5
 63
     7
 74
     1
 91
        4
 64
     7
 65
   257
 75
     1
175
     1
 42
1.0
 92
        0
 66
   257
 43
1.0
 76
     1
 77
     6
 78
     2
 67
     7
 79
     5
170
     0
171
     0
290
     0
174
     0
 93
       13
 44
0.0
173
     0
291
     1
 45
0.0
1001
ACAD
1000
AcDbSavedByObjectVersion
1070
     0
  0
VISUALSTYLE
  5
37
102
{ACAD_REACTORS
330
29
102
}
330
29
100
AcDbVisualStyle
  2
Linepattern
 70
    14
 71
     2
 72
     2
 73
     0
 90
        0
 40
-0.6
 41
-30.0
 62
     5
 63
     7
 74
     1
 91
        4
 64
     7
 65
   257
 75
     7
175
     7
 42
1.0
 92
        8
 66
     7
 43
1.0
 76
     1
 77
     6
 78
     2
 67
     7
 79
     5
170
     0
171
     0
290
     0
174
     0
 93
        1
 44
0.0
173
     0
291
     1
 45
0.0
1001
ACAD
1000
AcDbSavedByObjectVersion
1070
     0
  0
VISUALSTYLE
  5
33
102
{ACAD_REACTORS
330
29
102
}
330
29
100
AcDbVisualStyle
  2
Realistic
 70
     8
 71
     2
 72
     2
 73
     0
 90
        0
 40
-0.6
 41
-30.0
 62
     5
 63
     7
 74
     1
 91
        0
 64
     7
 65
   257
 75
     1
175
     1
 42
1.0
 92
        8
 66
     8
 43
1.0
 76
     1
 77
     6
 78
     2
 67
     7
 79
     5
170
     0
171
     0
290
     0
174
     0
 93
       13
 44
0.0
173
     0
291
     0
 45
0.0
1001
ACAD
1000
AcDbSavedByObjectVersion
1070
     0
  0
VISUALSTYLE
  5
36
102
{ACAD_REACTORS
330
29
102
}
330
29
100
AcDbVisualStyle
  2
Thicken
 70
    13
 71
     2
 72
     2
 73
     0
 90
        0
 40
-0.6
 41
-30.0
 62
     5
 63
     7
 74
     1
 91
        4
 64
     7
 65
   257
 75
     1
175
     1
 42
1.0
 92
       12
 66
     7
 43
1.0
 76
     1
 77
     6
 78
     2
 67
     7
 79
     5
170
     0
171
     0
290
     0
174
     0
 93
        1
 44
0.0
173
     0
291
     1
 45
0.0
1001
ACAD
1000
AcDbSavedByObjectVersion
1070
     0
  0
DICTIONARYVAR
  5
70B
102
{ACAD_REACTORS
330
707
102
}
330
707
100
DictionaryVariables
280
     0
  1
1:1
  0
DICTIONARYVAR
  5
709
102
{ACAD_REACTORS
330
707
102
}
330
707
100
DictionaryVariables
280
     0
  1
STANDARD
  0
DICTIONARYVAR
  5
708
102
{ACAD_REACTORS
330
707
102
}
330
707
100
DictionaryVariables
280
     0
  1
STANDARD
  0
DICTIONARYVAR
  5
712
102
{ACAD_REACTORS
330
707
102
}
330
707
100
DictionaryVariables
280
     0
  1
2
  0
DICTIONARYVAR
  5
711
102
{ACAD_REACTORS
330
707
102
}
330
707
100
DictionaryVariables
280
     0
  1
1
  0
DICTIONARYVAR
  5
710
102
{ACAD_REACTORS
330
707
102
}
330
707
100
DictionaryVariables
280
     0
  1
0
  0
DICTIONARYVAR
  5
713
102
{ACAD_REACTORS
330
707
102
}
330
707
100
DictionaryVariables
280
     0
  1
0.000000
  0
DICTIONARYVAR
  5
70D
102
{ACAD_REACTORS
330
707
102
}
330
707
100
DictionaryVariables
280
     0
  1
0
  0
DICTIONARYVAR
  5
70E
102
{ACAD_REACTORS
330
707
102
}
330
707
100
DictionaryVariables
280
     0
  1
0
  0
DICTIONARYVAR
  5
70C
102
{ACAD_REACTORS
330
707
102
}
330
707
100
DictionaryVariables
280
     0
  1
2
  0
DICTIONARYVAR
  5
714
102
{ACAD_REACTORS
330
707
102
}
330
707
100
DictionaryVariables
280
     0
  1
0.000000
  0
DICTIONARYVAR
  5
70A
102
{ACAD_REACTORS
330
707
102
}
330
707
100
DictionaryVariables
280
     0
  1
1
  0
DICTIONARYVAR
  5
70F
102
{ACAD_REACTORS
330
707
102
}
330
707
100
DictionaryVariables
280
     0
  1
127
  0
DICTIONARYVAR
  5
715
102
{ACAD_REACTORS
330
707
102
}
330
707
100
DictionaryVariables
280
     0
  1
0
  0
XRECORD
  5
702
102
{ACAD_REACTORS
330
701
102
}
330
701
100
AcDbXrecord
280
     1
  1
-2001160
  1
Plumbing Fixtures
  1
-2007000
  1
Connector Element
  0
XRECORD
  5
703
102
{ACAD_REACTORS
330
701
102
}
330
701
100
AcDbXrecord
280
     1
  1
-2007001
  1
X Axis
  1
-2007002
  1
Y Axis
  1
-2007003
  1
Z Axis
  0
DICTIONARY
  5
71D
330
74
100
AcDbDictionary
280
     1
281
     1
  3
ACAD_XREC_ROUNDTRIP
360
71E
  0
DICTIONARY
  5
721
330
7C
100
AcDbDictionary
280
     1
281
     1
  3
ACAD_XREC_ROUNDTRIP
360
722
  0
DICTIONARY
  5
71F
330
78
100
AcDbDictionary
280
     1
281
     1
  3
ACAD_XREC_ROUNDTRIP
360
720
  0
DICTIONARY
  5
1A
330
19
100
AcDbDictionary
280
     1
281
     1
  3
ACAD_XREC_ROUNDTRIP
360
71A
  3
BUMPTILE
360
1C
  3
DIFFUSETILE
360
1B
  3
OPACITYTILE
360
1F
  3
REFLECTIONTILE
360
1E
  3
REFRACTIONTILE
360
20
  3
SPECULARTILE
360
1D
  0
DICTIONARY
  5
12
330
11
100
AcDbDictionary
280
     1
281
     1
  3
ACAD_XREC_ROUNDTRIP
360
719
  3
BUMPTILE
360
14
  3
DIFFUSETILE
360
13
  3
OPACITYTILE
360
17
  3
REFLECTIONTILE
360
16
  3
REFRACTIONTILE
360
18
  3
SPECULARTILE
360
15
  0
DICTIONARY
  5
22
330
21
100
AcDbDictionary
280
     1
281
     1
  3
ACAD_XREC_ROUNDTRIP
360
71B
  3
BUMPTILE
360
24
  3
DIFFUSETILE
360
23
  3
OPACITYTILE
360
27
  3
REFLECTIONTILE
360
26
  3
REFRACTIONTILE
360
28
  3
SPECULARTILE
360
25
  0
DICTIONARY
  5
6FF
330
6FE
100
AcDbDictionary
280
     1
281
     1
  3
ACAD_XREC_ROUNDTRIP
360
724
  3
VIZ XML Material Definition
360
700
  0
DICTIONARY
  5
6FC
330
6FB
100
AcDbDictionary
280
     1
281
     1
  3
ACAD_XREC_ROUNDTRIP
360
723
  3
VIZ XML Material Definition
360
6FD
  0
DICTIONARY
  5
716
330
6D
100
AcDbDictionary
280
     1
281
     1
  3
ACAD_ROUNDTRIP_2008_TABLESTYLE_CELLSTYLEMAP
360
717
  3
ACAD_XREC_ROUNDTRIP
360
71C
  0
XRECORD
  5
71E
102
{ACAD_REACTORS
330
71D
102
}
330
71D
100
AcDbXrecord
280
     1
102
SHADEPLOT
 70
     0
102
SHADEPLOTRESLEVEL
 70
     2
102
SHADEPLOTCUSTOMDPI
 70
   300
  0
XRECORD
  5
722
102
{ACAD_REACTORS
330
721
102
}
330
721
100
AcDbXrecord
280
     1
102
SHADEPLOT
 70
     0
102
SHADEPLOTRESLEVEL
 70
     2
102
SHADEPLOTCUSTOMDPI
 70
   300
  0
XRECORD
  5
720
102
{ACAD_REACTORS
330
71F
102
}
330
71F
100
AcDbXrecord
280
     1
102
SHADEPLOT
 70
     0
102
SHADEPLOTRESLEVEL
 70
     2
102
SHADEPLOTCUSTOMDPI
 70
   300
  0
XRECORD
  5
71A
102
{ACAD_REACTORS
330
1A
102
}
330
1A
100
AcDbXrecord
280
     1
102
MATERIAL
148
0.0
149
0.0
149
0.0
 93
        0
 94
      127
282
     0
 72
     0
 77
     0
171
     0
175
     0
179
     0
273
     0
  0
XRECORD
  5
1C
102
{ACAD_REACTORS
330
1A
102
}
330
1A
100
AcDbXrecord
280
     1
270
     1
271
     1
  0
XRECORD
  5
1B
102
{ACAD_REACTORS
330
1A
102
}
330
1A
100
AcDbXrecord
280
     1
270
     1
271
     1
  0
XRECORD
  5
1F
102
{ACAD_REACTORS
330
1A
102
}
330
1A
100
AcDbXrecord
280
     1
270
     1
271
     1
  0
XRECORD
  5
1E
102
{ACAD_REACTORS
330
1A
102
}
330
1A
100
AcDbXrecord
280
     1
270
     1
271
     1
  0
XRECORD
  5
20
102
{ACAD_REACTORS
330
1A
102
}
330
1A
100
AcDbXrecord
280
     1
270
     1
271
     1
  0
XRECORD
  5
1D
102
{ACAD_REACTORS
330
1A
102
}
330
1A
100
AcDbXrecord
280
     1
270
     1
271
     1
  0
XRECORD
  5
719
102
{ACAD_REACTORS
330
12
102
}
330
12
100
AcDbXrecord
280
     1
102
MATERIAL
148
0.0
149
0.0
149
0.0
 93
        0
 94
      127
282
     0
 72
     0
 77
     0
171
     0
175
     0
179
     0
273
     0
  0
XRECORD
  5
14
102
{ACAD_REACTORS
330
12
102
}
330
12
100
AcDbXrecord
280
     1
270
     1
271
     1
  0
XRECORD
  5
13
102
{ACAD_REACTORS
330
12
102
}
330
12
100
AcDbXrecord
280
     1
270
     1
271
     1
  0
XRECORD
  5
17
102
{ACAD_REACTORS
330
12
102
}
330
12
100
AcDbXrecord
280
     1
270
     1
271
     1
  0
XRECORD
  5
16
102
{ACAD_REACTORS
330
12
102
}
330
12
100
AcDbXrecord
280
     1
270
     1
271
     1
  0
XRECORD
  5
18
102
{ACAD_REACTORS
330
12
102
}
330
12
100
AcDbXrecord
280
     1
270
     1
271
     1
  0
XRECORD
  5
15
102
{ACAD_REACTORS
330
12
102
}
330
12
100
AcDbXrecord
280
     1
270
     1
271
     1
  0
XRECORD
  5
71B
102
{ACAD_REACTORS
330
22
102
}
330
22
100
AcDbXrecord
280
     1
102
MATERIAL
148
0.0
149
0.0
149
0.0
 93
        0
 94
      127
282
     0
 72
     0
 77
     0
171
     0
175
     0
179
     0
273
     0
  0
XRECORD
  5
24
102
{ACAD_REACTORS
330
22
102
}
330
22
100
AcDbXrecord
280
     1
270
     1
271
     1
  0
XRECORD
  5
23
102
{ACAD_REACTORS
330
22
102
}
330
22
100
AcDbXrecord
280
     1
270
     1
271
     1
  0
XRECORD
  5
27
102
{ACAD_REACTORS
330
22
102
}
330
22
100
AcDbXrecord
280
     1
270
     1
271
     1
  0
XRECORD
  5
26
102
{ACAD_REACTORS
330
22
102
}
330
22
100
AcDbXrecord
280
     1
270
     1
271
     1
  0
XRECORD
  5
28
102
{ACAD_REACTORS
330
22
102
}
330
22
100
AcDbXrecord
280
     1
270
     1
271
     1
  0
XRECORD
  5
25
102
{ACAD_REACTORS
330
22
102
}
330
22
100
AcDbXrecord
280
     1
270
     1
271
     1
  0
XRECORD
  5
724
102
{ACAD_REACTORS
330
6FF
102
}
330
6FF
100
AcDbXrecord
280
     1
102
MATERIAL
148
0.0
149
0.0
149
0.0
 93
        0
 94
      127
282
     0
 72
     1
 77
     0
171
     1
175
     0
179
     1
273
     0
  0
XRECORD
  5
700
102
{ACAD_REACTORS
330
6FF
102
}
330
6FF
100
AcDbXrecord
280
     1
300
<Material id="RevitMaterialDefinition14599" app="REVIT" Background="0" Backlight="1" Sample="0" Tiling="0">^J<LinearUnits unitType="foot" unitScale="1.0"/>^J<ArchitecturalMaterial name="Polished Chrome">^J<ArchTemplateParameters name="Polished Chrome" classi
300
d_A="2008828122" classid_B="14503598">^J</ArchTemplateParameters>^J<ArchMatParameters>^J<ArchDiffuseColor>^J<RGBf r="0.9569" g="0.9569" b="0.9569"/>^J</ArchDiffuseColor>^J<ArchIndexOfRefraction>1.5000</ArchIndexOfRefraction>^J<ArchTransparency>0.0000</ArchTransp
300
arency>^J<ArchLuminance>0.0000</ArchLuminance>^J</ArchMatParameters>^J<MapSet>^J<MapLib>^J<TextureMap name="Polished Chrome texture" id="RevitTextureDefinition14599">^J<BitmapMap>^J<TexMapCoords2d>^J<TextureCoords>^J<ExplicitMapChannel CoordPlane="uv">^J<MapChannel
300
>1</MapChannel>^J<UCoords>^J<OffsetCoord>0.0000</OffsetCoord>^J<TilingCoord>0.0000</TilingCoord>^J<TextureTiling Tiling="tile"/>^J</UCoords>^J<VCoords>^J<OffsetCoord>0.0000</OffsetCoord>^J<TilingCoord>0.0000</TilingCoord>^J<TextureTiling Tiling="tile"/>^J</VCoords>
300
^J</ExplicitMapChannel>^J</TextureCoords>^J</TexMapCoords2d>^J<BitmapParameters>^J<BitmapFile filename="C:\DOCUME~1\ESPOSI~1\LOCALS~1\Temp"/>^J<Cropping on="0" CropType="crop">^J<UCrop>0.0</UCrop>^J<VCrop>0.0</VCrop>^J<WCrop>1.0</WCrop>^J<HCrop>1.0</HCrop>^J</Croppi
300
ng>^J</BitmapParameters>^J</BitmapMap>^J</TextureMap>^J</MapLib>^J<Map on="1" TexMapChannelNum="1" TexMapChannel="Diffuse Map" Amount="100" TexMapRef="RevitTextureDefinition14599"/>^J</MapSet>^J</ArchitecturalMaterial>^J</Material>^J
  0
XRECORD
  5
723
102
{ACAD_REACTORS
330
6FC
102
}
330
6FC
100
AcDbXrecord
280
     1
102
MATERIAL
148
0.0
149
0.0
149
0.0
 93
        0
 94
      127
282
     0
 72
     1
 77
     0
171
     1
175
     0
179
     1
273
     0
  0
XRECORD
  5
6FD
102
{ACAD_REACTORS
330
6FC
102
}
330
6FC
100
AcDbXrecord
280
     1
300
<Material id="RevitMaterialDefinition6241" app="REVIT" Background="0" Backlight="1" Sample="0" Tiling="0">^J<LinearUnits unitType="foot" unitScale="1.0"/>^J<ArchitecturalMaterial name="Vitreous China">^J<ArchTemplateParameters name="Vitreous China" classid_A
300
="2008828122" classid_B="14503598">^J</ArchTemplateParameters>^J<ArchMatParameters>^J<ArchDiffuseColor>^J<RGBf r="0.9373" g="0.9490" b="0.9765"/>^J</ArchDiffuseColor>^J<ArchIndexOfRefraction>1.5000</ArchIndexOfRefraction>^J<ArchTransparency>0.0000</ArchTranspare
300
ncy>^J<ArchLuminance>0.0000</ArchLuminance>^J</ArchMatParameters>^J<MapSet>^J<MapLib>^J<TextureMap name="Vitreous China texture" id="RevitTextureDefinition6241">^J<BitmapMap>^J<TexMapCoords2d>^J<TextureCoords>^J<ExplicitMapChannel CoordPlane="uv">^J<MapChannel>1</M
300
apChannel>^J<UCoords>^J<OffsetCoord>0.0000</OffsetCoord>^J<TilingCoord>0.0000</TilingCoord>^J<TextureTiling Tiling="tile"/>^J</UCoords>^J<VCoords>^J<OffsetCoord>0.0000</OffsetCoord>^J<TilingCoord>0.0000</TilingCoord>^J<TextureTiling Tiling="tile"/>^J</VCoords>^J</Ex
300
plicitMapChannel>^J</TextureCoords>^J</TexMapCoords2d>^J<BitmapParameters>^J<BitmapFile filename="C:\DOCUME~1\ESPOSI~1\LOCALS~1\Temp"/>^J<Cropping on="0" CropType="crop">^J<UCrop>0.0</UCrop>^J<VCrop>0.0</VCrop>^J<WCrop>1.0</WCrop>^J<HCrop>1.0</HCrop>^J</Cropping>^J<
300
/BitmapParameters>^J</BitmapMap>^J</TextureMap>^J</MapLib>^J<Map on="1" TexMapChannelNum="1" TexMapChannel="Diffuse Map" Amount="100" TexMapRef="RevitTextureDefinition6241"/>^J</MapSet>^J</ArchitecturalMaterial>^J</Material>^J
  0
CELLSTYLEMAP
  5
717
102
{ACAD_REACTORS
330
716
102
}
330
716
100
AcDbCellStyleMap
 90
        3
300
CELLSTYLE
  1
TABLEFORMAT_BEGIN
 90
        5
170
     1
 91
        0
 92
    32768
 62
   257
 93
        1
300
CONTENTFORMAT
  1
CONTENTFORMAT_BEGIN
 90
        0
 91
        0
 92
      512
 93
        0
300

 40
0.0
140
1.0
 94
        5
 62
     0
340
5D
144
0.25
309
CONTENTFORMAT_END
171
     0
 94
        0
309
TABLEFORMAT_END
  1
CELLSTYLE_BEGIN
 90
        1
 91
        1
300
_TITLE
309
CELLSTYLE_END
300
CELLSTYLE
  1
TABLEFORMAT_BEGIN
 90
        5
170
     1
 91
        0
 92
        0
 62
   257
 93
        1
300
CONTENTFORMAT
  1
CONTENTFORMAT_BEGIN
 90
        0
 91
        0
 92
      512
 93
        0
300

 40
0.0
140
1.0
 94
        5
 62
     0
340
5D
144
0.18
309
CONTENTFORMAT_END
171
     0
 94
        0
309
TABLEFORMAT_END
  1
CELLSTYLE_BEGIN
 90
        2
 91
        1
300
_HEADER
309
CELLSTYLE_END
300
CELLSTYLE
  1
TABLEFORMAT_BEGIN
 90
        5
170
     1
 91
        0
 92
        0
 62
   257
 93
        1
300
CONTENTFORMAT
  1
CONTENTFORMAT_BEGIN
 90
        0
 91
        0
 92
      512
 93
        0
300

 40
0.0
140
1.0
 94
        2
 62
     0
340
5D
144
0.18
309
CONTENTFORMAT_END
171
     0
 94
        0
309
TABLEFORMAT_END
  1
CELLSTYLE_BEGIN
 90
        3
 91
        2
300
_DATA
309
CELLSTYLE_END
  0
XRECORD
  5
71C
102
{ACAD_REACTORS
330
716
102
}
330
716
100
AcDbXrecord
280
     1
102
ACAD_ROUNDTRIP_PRE2007_TABLESTYLE
 90
      512
 91
        0
  1

 92
      512
 93
        0
  2

 94
      512
 95
        0
  3

  0
ENDSEC
  0
EOF
